0
SECTION
2
HEADER
0
ENDSEC
0
SECTION
2
TABLES
0
TABLE
2
LTYPE
0
LTYPE
72
65
70
64
2
CONTINUOUS
3
______
73
0
40
0
0
LTYPE
72
65
70
64
2
DASH_DEFAULT_255_2_778_085_043
3
______
73
2
40
2
49
-0.2645833259738156
49
0.13384803549263613
0
ENDTAB
0
TABLE
2
LAYER
0
LAYER
2
DEFAULT_255_2_778
70
0
62
255
6
CONTINUOUS
0
LAYER
2
DEFAULT_255_2_778_085_043
70
0
62
255
6
DASH_DEFAULT_255_2_778_085_043
0
LAYER
2
DEFAULT_4_2_778
70
0
62
4
6
CONTINUOUS
0
ENDTAB
0
ENDSEC
0
SECTION
2
ENTITIES
0
LINE
8
DEFAULT_255_2_778
10
50.5394766
20
50.8496146
11
50.5394766
21
35.3466853
0
LINE
8
DEFAULT_255_2_778
10
50.5394766
20
-8.0615166
11
50.5394766
21
10.5419985
0
LINE
8
DEFAULT_255_2_778
10
50.5394766
20
10.5419985
11
44.3383049
21
35.3466853
0
LINE
8
DEFAULT_255_2_778_085_043
10
47.4388941
20
22.9443221
11
36.5868436
21
22.9443221
0
LINE
8
DEFAULT_255_2_778
10
31.1607985
20
28.3710874
11
36.5866623
21
22.9452196
0
LINE
8
DEFAULT_255_2_778
10
36.5866623
20
22.9452196
11
31.1607985
21
17.5193559
0
LINE
8
DEFAULT_255_2_778
10
31.1607985
20
17.5193559
11
25.7349348
21
22.9452196
0
LINE
8
DEFAULT_255_2_778
10
25.7349348
20
22.9452196
11
31.1607985
21
28.3710874
0
LINE
8
DEFAULT_4_2_778
10
53.6400492
20
50.2294776
11
47.4388775
21
50.2294776
0
LINE
8
DEFAULT_4_2_778
10
50.5394634
20
53.33007
11
50.5394634
21
50.2294842
0
LINE
8
DEFAULT_4_2_778
10
47.4388775
20
-5.5810678
11
53.6400492
21
-5.5810678
0
LINE
8
DEFAULT_4_2_778
10
50.5394634
20
-8.6816338
11
50.5394634
21
-5.5810479
0
ENDSEC
0
EOF