0
SECTION
2
HEADER
0
ENDSEC
0
SECTION
2
TABLES
0
TABLE
2
LTYPE
0
LTYPE
72
65
70
64
2
CONTINUOUS
3
______
73
0
40
0
0
LTYPE
72
65
70
64
2
DASH_DEFAULT_255_2_778_085_043
3
______
73
2
40
2
49
-0.2645833259738156
49
0.13384803549263613
0
ENDTAB
0
TABLE
2
LAYER
0
LAYER
2
DEFAULT_255_2_778
70
0
62
255
6
CONTINUOUS
0
LAYER
2
DEFAULT_255_2_778_085_043
70
0
62
255
6
DASH_DEFAULT_255_2_778_085_043
0
LAYER
2
DEFAULT_4_2_778
70
0
62
4
6
CONTINUOUS
0
ENDTAB
0
ENDSEC
0
SECTION
2
ENTITIES
0
LINE
8
DEFAULT_255_2_778
10
53.6401286
20
54.570311
11
53.6401286
21
35.9667959
0
LINE
8
DEFAULT_255_2_778
10
53.6401286
20
-7.441406
11
53.6401286
21
11.1621091
0
LINE
8
DEFAULT_255_2_778
10
53.6401286
20
11.1621091
11
47.4389569
21
35.9667959
0
LINE
8
DEFAULT_255_2_778_085_043
10
50.5395626
20
23.5644525
11
35.0366333
21
23.5644525
0
ARC
8
0
10
28.9061839
20
23.5685219
40
6.2719019
50
168.1624161
51
180.0371759
0
ARC
8
0
10
28.7982541
20
23.5890514
40
6.1620564
50
151.8357285
51
168.1433762
0
ARC
8
0
10
28.82572
20
23.5734445
40
6.1936368
50
109.8829518
51
151.8283736
0
ARC
8
0
10
28.8179899
20
23.5770948
40
6.1875779
50
96.2170381
51
109.8271349
0
ARC
8
0
10
28.8341108
20
23.4420215
40
6.3236028
50
89.9878208
51
96.2297087
0
ARC
8
0
10
28.8395255
20
23.4937421
40
6.2718834
50
78.1623898
51
90.0371848
0
ARC
8
0
10
28.8600524
20
23.6016529
40
6.1620571
50
61.8357166
51
78.1433634
0
ARC
8
0
10
28.8444447
20
23.5741853
40
6.1936395
50
19.8829564
51
61.8283622
0
ARC
8
0
10
28.8481009
20
23.5819175
40
6.1875744
50
6.21704
51
19.8271405
0
ARC
8
0
10
28.7130311
20
23.5657967
40
6.3235959
50
359.9878209
51
6.2297124
0
ARC
8
0
10
28.7647446
20
23.560382
40
6.2718834
50
348.1623898
51
0.0371848
0
ARC
8
0
10
28.8726555
20
23.5398551
40
6.1620571
50
331.8357166
51
348.1433634
0
ARC
8
0
10
28.8451879
20
23.5554628
40
6.1936395
50
289.8829564
51
331.8283622
0
ARC
8
0
10
28.85292
20
23.5518066
40
6.1875744
50
276.21704
51
289.8271405
0
ARC
8
0
10
28.8367992
20
23.6868764
40
6.3235959
50
269.9878209
51
276.2297124
0
ARC
8
0
10
28.8313844
20
23.6351667
40
6.2718873
50
258.1623932
51
270.0371863
0
ARC
8
0
10
28.8108561
20
23.5272519
40
6.1620568
50
241.8357214
51
258.1433717
0
ARC
8
0
10
28.8264635
20
23.5547177
40
6.1936373
50
199.882945
51
241.828362
0
ARC
8
0
10
28.8228224
20
23.5469897
40
6.1875878
50
186.2170476
51
199.8271179
0
ARC
8
0
10
28.957879
20
23.5631083
40
6.3235959
50
179.9878209
51
186.2297124
0
LINE
8
DEFAULT_255_2_778
10
22.6342833
20
23.5644525
11
22.6342833
21
23.5644525
0
LINE
8
DEFAULT_255_2_778
10
26.5100156
20
21.2390131
11
26.5100156
21
25.8898919
0
LINE
8
DEFAULT_255_2_778
10
26.5100156
20
25.8898919
11
28.835455
21
23.5644525
0
LINE
8
DEFAULT_255_2_778
10
28.835455
20
23.5644525
11
31.1608944
21
25.8898919
0
LINE
8
DEFAULT_255_2_778
10
31.1608944
20
25.8898919
11
31.1608944
21
21.2390131
0
LINE
8
DEFAULT_4_2_778
10
56.7407277
20
52.0898423
11
50.539556
21
52.0898423
0
LINE
8
DEFAULT_4_2_778
10
53.6401418
20
55.1904348
11
53.6401418
21
52.0898489
0
LINE
8
DEFAULT_4_2_778
10
50.539556
20
-4.9609374
11
56.7407277
21
-4.9609374
0
LINE
8
DEFAULT_4_2_778
10
53.6401418
20
-8.0615298
11
53.6401418
21
-4.960944
0
ENDSEC
0
EOF