0
SECTION
2
HEADER
0
ENDSEC
0
SECTION
2
TABLES
0
TABLE
2
LTYPE
0
LTYPE
72
65
70
64
2
CONTINUOUS
3
______
73
0
40
0
0
LTYPE
72
65
70
64
2
DASH_DEFAULT_255_2_778_064_085
3
______
73
2
40
2
49
-0.19921568073322585
49
0.2645833259738156
0
ENDTAB
0
TABLE
2
LAYER
0
LAYER
2
DEFAULT_255_2_778
70
0
62
255
6
CONTINUOUS
0
LAYER
2
DEFAULT_255_2_778_064_085
70
0
62
255
6
DASH_DEFAULT_255_2_778_064_085
0
LAYER
2
DEFAULT_4_2_778
70
0
62
4
6
CONTINUOUS
0
ENDTAB
0
ENDSEC
0
SECTION
2
ENTITIES
0
LINE
8
DEFAULT_255_2_778
10
50.539556
20
54.570311
11
50.539556
21
35.9667959
0
LINE
8
DEFAULT_255_2_778
10
44.3383843
20
35.9667959
11
50.539556
21
11.1621091
0
LINE
8
DEFAULT_255_2_778
10
50.539556
20
11.1621091
11
50.539556
21
-7.441406
0
LINE
8
DEFAULT_255_2_778_064_085
10
47.4389569
20
23.5644525
11
38.7573165
21
23.5644525
0
LINE
8
DEFAULT_255_2_778
10
32.2460929
20
27.2851555
11
32.2460929
21
29.7656242
0
ARC
8
0
10
32.2743869
20
27.7447584
40
7.7493185
50
292.4639404
51
327.3543559
0
ARC
8
0
10
32.2943624
20
27.7126239
40
7.711992
50
279.207789
51
292.4180181
0
ARC
8
0
10
32.2705385
20
27.8646108
40
7.8658328
50
269.9755518
51
279.2019375
0
ARC
8
0
10
32.2632384
20
27.8543587
40
7.855581
50
259.8830921
51
270.028764
0
ARC
8
0
10
32.2385735
20
27.7079308
40
7.7070973
50
246.3148395
51
259.8723891
0
ARC
8
0
10
32.261245
20
27.7459734
40
7.7510447
50
212.6481356
51
246.2743335
0
ARC
8
0
10
32.2599932
20
19.3841167
40
7.7493514
50
112.4639496
51
147.3542489
0
ARC
8
0
10
32.2400041
20
19.4162823
40
7.7119909
50
99.207796
51
112.4180225
0
ARC
8
0
10
32.263826
20
19.2643095
40
7.8658174
50
89.9755532
51
99.2019463
0
ARC
8
0
10
32.2710851
20
19.2730381
40
7.8570891
50
79.8840669
51
90.0284611
0
ARC
8
0
10
32.2956066
20
19.4184715
40
7.7096096
50
66.318575
51
79.8736349
0
ARC
8
0
10
32.2772349
20
19.3881423
40
7.7447653
50
32.6321189
51
66.2842268
0
LINE
8
DEFAULT_255_2_778
10
38.7994908
20
23.5644525
11
38.7994908
21
23.5644525
0
LINE
8
DEFAULT_4_2_778
10
53.6401286
20
52.0898423
11
47.4389569
21
52.0898423
0
LINE
8
DEFAULT_4_2_778
10
50.5395428
20
55.1904348
11
50.5395428
21
52.0898489
0
LINE
8
DEFAULT_4_2_778
10
47.4389569
20
-4.9609374
11
53.6401286
21
-4.9609374
0
LINE
8
DEFAULT_4_2_778
10
50.5395428
20
-8.0615298
11
50.5395428
21
-4.960944
0
ENDSEC
0
EOF