0
SECTION
2
HEADER
0
ENDSEC
0
SECTION
2
TABLES
0
TABLE
2
LTYPE
0
LTYPE
72
65
70
64
2
CONTINUOUS
3
______
73
0
40
0
0
LTYPE
72
65
70
64
2
DASH_DEFAULT_255_2_778_064_085
3
______
73
2
40
2
49
-0.19921568073322585
49
0.2645833259738156
0
ENDTAB
0
TABLE
2
LAYER
0
LAYER
2
DEFAULT_255_2_778
70
0
62
255
6
CONTINUOUS
0
LAYER
2
DEFAULT_255_2_778_064_085
70
0
62
255
6
DASH_DEFAULT_255_2_778_064_085
0
LAYER
2
DEFAULT_4_2_778
70
0
62
4
6
CONTINUOUS
0
ENDTAB
0
ENDSEC
0
SECTION
2
ENTITIES
0
LINE
8
DEFAULT_255_2_778
10
50.539556
20
54.570311
11
50.539556
21
35.9667959
0
LINE
8
DEFAULT_255_2_778
10
44.3383843
20
35.9667959
11
50.539556
21
11.1621091
0
LINE
8
DEFAULT_255_2_778
10
50.539556
20
11.1621091
11
50.539556
21
-7.441406
0
LINE
8
DEFAULT_255_2_778_064_085
10
47.4389635
20
23.5644525
11
31.9360343
21
23.5644525
0
LINE
8
DEFAULT_255_2_778
10
25.7348758
20
20.4638666
11
28.8354616
21
17.3632808
0
LINE
8
DEFAULT_255_2_778
10
28.8354616
20
17.3632808
11
35.0366333
21
29.7656242
0
LINE
8
DEFAULT_4_2_778
10
53.6401286
20
52.0898423
11
47.4389569
21
52.0898423
0
LINE
8
DEFAULT_4_2_778
10
50.5395428
20
55.1904348
11
50.5395428
21
52.0898489
0
LINE
8
DEFAULT_4_2_778
10
47.4389569
20
-4.9609374
11
53.6401286
21
-4.9609374
0
LINE
8
DEFAULT_4_2_778
10
50.5395428
20
-8.0615298
11
50.5395428
21
-4.960944
0
ENDSEC
0
EOF