0
SECTION
2
HEADER
0
ENDSEC
0
SECTION
2
TABLES
0
TABLE
2
LTYPE
0
LTYPE
72
65
70
64
2
CONTINUOUS
3
______
73
0
40
0
0
LTYPE
72
65
70
64
2
DASH_DEFAULT_255_2_778_085_043
3
______
73
2
40
2
49
-0.2645833259738156
49
0.13384803549263613
0
ENDTAB
0
TABLE
2
LAYER
0
LAYER
2
DEFAULT_255_2_778
70
0
62
255
6
CONTINUOUS
0
LAYER
2
DEFAULT_255_2_778_085_043
70
0
62
255
6
DASH_DEFAULT_255_2_778_085_043
0
LAYER
2
DEFAULT_4_2_778
70
0
62
4
6
CONTINUOUS
0
ENDTAB
0
ENDSEC
0
SECTION
2
ENTITIES
0
LINE
8
DEFAULT_255_2_778
10
50.8735782
20
54.570311
11
50.8735782
21
35.9667959
0
LINE
8
DEFAULT_255_2_778
10
50.8636467
20
-7.441406
11
50.8760531
21
11.1621091
0
LINE
8
DEFAULT_255_2_778
10
50.8760531
20
11.1621091
11
44.6748814
21
35.9667959
0
LINE
8
DEFAULT_255_2_778_085_043
10
47.773
20
23.5644525
11
32.2700707
21
23.5644525
0
ARC
8
0
10
38.572395
20
20.9664137
40
13.1708975
50
160.8256885
51
165.0170103
0
ARC
8
0
10
37.8117471
20
21.2313498
40
12.3654311
50
157.075036
51
160.8275826
0
ARC
8
0
10
36.8714767
20
21.6304675
40
11.3439608
50
153.2269502
51
157.0817769
0
ARC
8
0
10
35.7943548
20
22.175046
40
10.1369993
50
149.3098564
51
153.2326065
0
ARC
8
0
10
34.6460446
20
22.8588303
40
8.8005215
50
144.9922841
51
149.3223676
0
ARC
8
0
10
33.5181331
20
23.6499955
40
7.4227967
50
140.4217462
51
144.9996607
0
ARC
8
0
10
32.4941289
20
24.4989688
40
6.0926329
50
135.1991405
51
140.4398511
0
ARC
8
0
10
31.6312819
20
25.3573222
40
4.8755569
50
129.3710088
51
135.2115107
0
ARC
8
0
10
30.9557851
20
26.1843468
40
3.8077283
50
122.1935804
51
129.4073985
0
ARC
8
0
10
30.5626438
20
26.7991368
40
3.0780062
50
117.077484
51
122.0977496
0
ARC
8
0
10
30.3650792
20
27.184567
40
2.644892
50
112.0761578
51
117.0674321
0
ARC
8
0
10
30.2338968
20
27.5090217
40
2.2949211
50
106.2297642
51
112.0855908
0
ARC
8
0
10
30.1503913
20
27.7976265
40
1.9944788
50
99.0468596
51
106.2436815
0
ARC
8
0
10
30.1129756
20
28.0342119
40
1.7549529
50
90.0815128
51
99.0550529
0
ARC
8
0
10
30.1130703
20
28.1946234
40
1.5945418
50
75.0412878
51
90.0931153
0
ARC
8
0
10
30.0803573
20
28.1208399
40
1.6743161
50
46.9913897
51
74.6115023
0
ARC
8
0
10
29.6908013
20
27.6804535
40
2.2621219
50
35.5896781
51
47.3846901
0
ARC
8
0
10
29.1047808
20
27.2562022
40
2.9855839
50
27.0884585
51
35.6655465
0
ARC
8
0
10
28.3137939
20
26.8484784
40
3.8754675
50
20.3013757
51
27.1300046
0
ARC
8
0
10
27.3537723
20
26.4901581
40
4.9001762
50
14.8288619
51
20.3361532
0
ARC
8
0
10
26.2315287
20
26.1922323
40
6.0612919
50
9.780244
51
14.836276
0
ARC
8
0
10
24.9596656
20
25.9712439
40
7.3522098
50
5.2663117
51
9.7936918
0
ARC
8
0
10
23.6479798
20
25.8483412
40
8.6696396
50
1.225825
51
5.279468
0
ARC
8
0
10
22.7949215
20
25.8227297
40
9.5230533
50
359.995334
51
1.2700833
0
ARC
8
0
10
22.171468
20
25.825066
40
10.1465073
50
357.4426286
51
359.9824277
0
ARC
8
0
10
21.3819704
20
25.859943
40
10.9367747
50
354.9816372
51
357.444645
0
ARC
8
0
10
20.642429
20
25.9248489
40
11.6791589
50
352.405861
51
354.9818054
0
ARC
8
0
10
19.9739018
20
26.0136266
40
12.3535549
50
349.8217687
51
352.4074853
0
ARC
8
0
10
19.4068828
20
26.1152163
40
12.9296028
50
347.0954803
51
349.8226877
0
ARC
8
0
10
19.0098372
20
26.2050704
40
13.3366872
50
344.9961335
51
347.1001475
0
ARC
8
0
10
19.1687789
20
26.1575
40
13.1708498
50
340.8256528
51
345.0170191
0
ARC
8
0
10
19.9294604
20
25.8925443
40
12.3653453
50
337.0749823
51
340.8275797
0
ARC
8
0
10
20.8698079
20
25.4933776
40
11.3437852
50
333.2268849
51
337.0817946
0
ARC
8
0
10
21.9468282
20
24.9488437
40
10.1369344
50
329.3097704
51
333.2325668
0
ARC
8
0
10
23.0951888
20
24.2650231
40
8.8003948
50
324.9921391
51
329.3223049
0
ARC
8
0
10
24.2230255
20
23.4739033
40
7.4227574
50
320.4215762
51
324.9995321
0
ARC
8
0
10
25.2470418
20
22.6249181
40
6.0925766
50
315.198884
51
320.4396577
0
ARC
8
0
10
26.1099633
20
21.7664802
40
4.8753882
50
309.3705641
51
315.2112793
0
ARC
8
0
10
26.7854056
20
20.9395055
40
3.8076325
50
302.1929792
51
309.4069871
0
ARC
8
0
10
27.1785438
20
20.3247016
40
3.0779006
50
297.076747
51
302.0971895
0
ARC
8
0
10
27.3761096
20
19.9392465
40
2.6447636
50
292.0754776
51
297.0667958
0
ARC
8
0
10
27.5072532
20
19.6148737
40
2.2948833
50
286.2292351
51
292.0849379
0
ARC
8
0
10
27.5907483
20
19.3262971
40
1.9944709
50
279.0465359
51
286.243132
0
ARC
8
0
10
27.6281622
20
19.0896972
40
1.7549314
50
270.0814643
51
279.0548192
0
ARC
8
0
10
27.6280668
20
18.9293192
40
1.5945536
50
255.0411509
51
270.0930832
0
ARC
8
0
10
27.660769
20
19.0030827
40
1.6743058
50
226.9913216
51
254.6115513
0
ARC
8
0
10
28.0503442
20
19.4434875
40
2.2621381
50
215.5896678
51
227.3845982
0
ARC
8
0
10
28.636369
20
19.8677398
40
2.9856042
50
207.0884647
51
215.6655056
0
ARC
8
0
10
29.4273991
20
20.2754802
40
3.8755338
50
200.3014106
51
207.1299354
0
ARC
8
0
10
30.3873544
20
20.6337751
40
4.9001715
50
194.8288632
51
200.336172
0
ARC
8
0
10
31.5097287
20
20.9317294
40
6.0614209
50
189.7802853
51
194.8362217
0
ARC
8
0
10
32.7816239
20
21.1527138
40
7.3523698
50
185.2663594
51
189.7936522
0
ARC
8
0
10
34.0931838
20
21.2755973
40
8.6696725
50
181.2258206
51
185.2794582
0
ARC
8
0
10
34.9462775
20
21.3012094
40
9.5231219
50
179.9953349
51
181.2700782
0
ARC
8
0
10
35.5695945
20
21.2988729
40
10.1464393
50
177.4426196
51
179.9824276
0
ARC
8
0
10
36.3586531
20
21.2640294
40
10.9362669
50
174.9815956
51
177.4447095
0
ARC
8
0
10
37.0986601
20
21.1990951
40
11.6791173
50
172.4058831
51
174.9818276
0
ARC
8
0
10
37.7675182
20
21.1102675
40
12.3538479
50
169.8218333
51
172.4074791
0
ARC
8
0
10
38.3341493
20
21.0087326
40
12.929504
50
167.0954669
51
169.8226848
0
ARC
8
0
10
38.7317452
20
20.9187486
40
13.3371541
50
164.996186
51
167.1001183
0
LINE
8
DEFAULT_255_2_778
10
25.8492734
20
24.3715157
11
25.8492734
21
24.3715157
0
LINE
8
DEFAULT_255_2_778
10
32.0034199
20
23.5644525
11
28.8705888
21
23.5644525
0
LINE
8
DEFAULT_4_2_778
10
53.9518342
20
52.0898423
11
47.7506625
21
52.0898423
0
LINE
8
DEFAULT_4_2_778
10
50.8512484
20
55.1904348
11
50.8512484
21
52.0898489
0
LINE
8
DEFAULT_4_2_778
10
47.7506625
20
-4.9609374
11
53.9518342
21
-4.9609374
0
LINE
8
DEFAULT_4_2_778
10
50.8512484
20
-8.0615298
11
50.8512484
21
-4.960944
0
ENDSEC
0
EOF