0
SECTION
2
HEADER
0
ENDSEC
0
SECTION
2
TABLES
0
TABLE
2
LTYPE
0
LTYPE
72
65
70
64
2
CONTINUOUS
3
______
73
0
40
0
0
ENDTAB
0
TABLE
2
LAYER
0
LAYER
2
DEFAULT_255_2_778
70
0
62
255
6
CONTINUOUS
0
LAYER
2
DEFAULT_4_2_778
70
0
62
4
6
CONTINUOUS
0
ENDTAB
0
ENDSEC
0
SECTION
2
ENTITIES
0
LINE
8
DEFAULT_255_2_778
10
45.5782507
20
54.570311
11
45.5782507
21
35.9667959
0
LINE
8
DEFAULT_255_2_778
10
45.5782507
20
-7.441406
11
45.5782507
21
11.1621091
0
LINE
8
DEFAULT_255_2_778
10
45.5782507
20
11.1621091
11
39.3994048
21
35.9667959
0
LINE
8
DEFAULT_255_2_778
10
41.3954253
20
27.4402134
11
37.8285001
21
26.5107846
0
LINE
8
DEFAULT_255_2_778
10
37.8285001
20
26.5107846
11
36.8510202
21
30.0639308
0
LINE
8
DEFAULT_255_2_778
10
36.8510202
20
30.0639308
11
33.2851648
21
29.1338842
0
LINE
8
DEFAULT_255_2_778
10
33.2851648
20
29.1338842
11
34.2620229
21
25.5796681
0
LINE
8
DEFAULT_255_2_778
10
34.2620229
20
25.5796681
11
30.6961756
21
24.6496256
0
LINE
8
DEFAULT_255_2_778
10
38.3430499
20
20.68257
11
32.6718887
21
17.4487236
0
LINE
8
DEFAULT_255_2_778
10
32.6718887
20
17.4487236
11
39.1867202
21
17.0282268
0
LINE
8
DEFAULT_255_2_778
10
39.1867202
20
17.0282268
11
38.3430499
21
20.68257
0
LINE
8
DEFAULT_255_2_778
10
43.3550302
20
19.9606687
11
38.7750208
21
18.9032882
0
LINE
8
DEFAULT_4_2_778
10
48.6788208
20
52.0898423
11
42.4776491
21
52.0898423
0
LINE
8
DEFAULT_4_2_778
10
45.578235
20
55.1904348
11
45.578235
21
52.0898489
0
LINE
8
DEFAULT_4_2_778
10
42.4776491
20
-4.9609374
11
48.6788208
21
-4.9609374
0
LINE
8
DEFAULT_4_2_778
10
45.578235
20
-8.0615298
11
45.578235
21
-4.960944
0
ENDSEC
0
EOF