0
SECTION
2
HEADER
0
ENDSEC
0
SECTION
2
TABLES
0
TABLE
2
LTYPE
0
LTYPE
72
65
70
64
2
CONTINUOUS
3
______
73
0
40
0
0
ENDTAB
0
TABLE
2
LAYER
0
LAYER
2
DEFAULT_255_2_778
70
0
62
255
6
CONTINUOUS
0
LAYER
2
DEFAULT_4_2_778
70
0
62
4
6
CONTINUOUS
0
ENDTAB
0
ENDSEC
0
SECTION
2
ENTITIES
0
LINE
8
DEFAULT_255_2_778
10
21.0839838
20
29.7656242
11
58.291014
21
29.7656242
0
LINE
8
DEFAULT_255_2_778
10
58.291014
20
29.7656242
11
58.291014
21
17.3632808
0
LINE
8
DEFAULT_255_2_778
10
58.291014
20
17.3632808
11
21.0839838
21
17.3632808
0
LINE
8
DEFAULT_255_2_778
10
21.0839838
20
17.3632808
11
21.0839838
21
29.7656242
0
LINE
8
DEFAULT_255_2_778
10
45.8886706
20
29.7656242
11
45.8886706
21
17.3632808
0
ARC
8
0
10
52.1055664
20
23.5682212
40
3.1163122
50
162.2114963
51
180.0692913
0
ARC
8
0
10
52.0837491
20
23.5704402
40
3.0948634
50
106.2330697
51
162.1272167
0
ARC
8
0
10
52.086558
20
23.5440408
40
3.1209992
50
89.9397069
51
106.147101
0
ARC
8
0
10
52.0936103
20
23.5487276
40
3.116313
50
72.2115453
51
90.0692774
0
ARC
8
0
10
52.0958302
20
23.570545
40
3.0948637
50
16.2331372
51
72.1272823
0
ARC
8
0
10
52.0694235
20
23.5677366
40
3.1210063
50
359.9397091
51
16.1471211
0
ARC
8
0
10
52.0741182
20
23.5606837
40
3.1163122
50
342.2114963
51
0.0692913
0
ARC
8
0
10
52.0959355
20
23.5584648
40
3.0948634
50
286.2330697
51
342.1272167
0
ARC
8
0
10
52.0931266
20
23.5848642
40
3.1209992
50
269.9397069
51
286.147101
0
ARC
8
0
10
52.0860743
20
23.5801774
40
3.116313
50
252.2115453
51
270.0692774
0
ARC
8
0
10
52.0838544
20
23.5583599
40
3.0948637
50
196.2331372
51
252.1272823
0
ARC
8
0
10
52.1102611
20
23.5611683
40
3.1210063
50
179.9397091
51
196.1471211
0
LINE
8
DEFAULT_255_2_778
10
48.9892564
20
23.5644525
11
48.9892564
21
23.5644525
0
LINE
8
DEFAULT_255_2_778
10
33.4863272
20
29.7656242
11
33.4863272
21
54.570311
0
LINE
8
DEFAULT_255_2_778
10
33.4863272
20
17.3632808
11
33.4863272
21
-7.441406
0
LINE
8
DEFAULT_4_2_778
10
36.586913
20
52.0898423
11
30.3857413
21
52.0898423
0
LINE
8
DEFAULT_4_2_778
10
33.4863272
20
55.1904348
11
33.4863272
21
52.0898489
0
LINE
8
DEFAULT_4_2_778
10
30.3857413
20
-4.9609374
11
36.586913
21
-4.9609374
0
LINE
8
DEFAULT_4_2_778
10
33.4863272
20
-8.0615298
11
33.4863272
21
-4.960944
0
ENDSEC
0
EOF