0
SECTION
2
HEADER
0
ENDSEC
0
SECTION
2
TABLES
0
TABLE
2
LTYPE
0
LTYPE
72
65
70
64
2
CONTINUOUS
3
______
73
0
40
0
0
ENDTAB
0
TABLE
2
LAYER
0
LAYER
2
DEFAULT_255_2_778
70
0
62
255
6
CONTINUOUS
0
LAYER
2
DEFAULT_4_2_778
70
0
62
4
6
CONTINUOUS
0
ENDTAB
0
ENDSEC
0
SECTION
2
ENTITIES
0
LINE
8
DEFAULT_255_2_778
10
39.6874989
20
54.570311
11
39.6874989
21
29.7656242
0
LINE
8
DEFAULT_255_2_778
10
39.6874989
20
-7.441406
11
39.6874989
21
17.3632808
0
LINE
8
DEFAULT_255_2_778
10
27.2851555
20
29.7656242
11
52.0898423
21
29.7656242
0
LINE
8
DEFAULT_255_2_778
10
52.0898423
20
29.7656242
11
52.0898423
21
17.3632808
0
LINE
8
DEFAULT_255_2_778
10
52.0898423
20
17.3632808
11
27.2851555
21
17.3632808
0
LINE
8
DEFAULT_255_2_778
10
27.2851555
20
17.3632808
11
27.2851555
21
29.7656242
0
LINE
8
DEFAULT_255_2_778
10
34.7265615
20
26.3549781
11
34.7265615
21
21.3940407
0
LINE
8
DEFAULT_255_2_778
10
33.1762686
20
21.2390114
11
36.2768545
21
21.2390114
0
LINE
8
DEFAULT_255_2_778
10
33.1762719
20
26.3549715
11
36.2768578
21
26.3549715
0
LINE
8
DEFAULT_255_2_778
10
41.5478537
20
23.4094149
11
47.7490254
21
23.4094149
0
LINE
8
DEFAULT_255_2_778
10
43.0981466
20
21.859122
11
46.1987325
21
21.859122
0
LINE
8
DEFAULT_255_2_778
10
43.8732931
20
20.3088291
11
45.423586
21
20.3088291
0
LINE
8
DEFAULT_255_2_778
10
44.6484396
20
26.6650301
11
44.6484396
21
23.5644442
0
LINE
8
DEFAULT_4_2_778
10
42.7880847
20
52.0898423
11
36.586913
21
52.0898423
0
LINE
8
DEFAULT_4_2_778
10
39.6874989
20
55.1904348
11
39.6874989
21
52.0898489
0
LINE
8
DEFAULT_4_2_778
10
36.586913
20
-4.9609374
11
42.7880847
21
-4.9609374
0
LINE
8
DEFAULT_4_2_778
10
39.6874989
20
-8.0615298
11
39.6874989
21
-4.960944
0
ENDSEC
0
EOF