0
SECTION
2
HEADER
0
ENDSEC
0
SECTION
2
TABLES
0
TABLE
2
LTYPE
0
LTYPE
72
65
70
64
2
CONTINUOUS
3
______
73
0
40
0
0
ENDTAB
0
TABLE
2
LAYER
0
LAYER
2
DEFAULT_255_2_778
70
0
62
255
6
CONTINUOUS
0
LAYER
2
DEFAULT_4_2_778
70
0
62
4
6
CONTINUOUS
0
ENDTAB
0
ENDSEC
0
SECTION
2
ENTITIES
0
LINE
8
DEFAULT_255_2_778
10
39.6874989
20
54.570311
11
39.6874989
21
29.7656242
0
LINE
8
DEFAULT_255_2_778
10
39.6874989
20
-7.441406
11
39.6874989
21
17.3632808
0
LINE
8
DEFAULT_255_2_778
10
27.2851555
20
29.7656242
11
52.0898423
21
29.7656242
0
LINE
8
DEFAULT_255_2_778
10
52.0898423
20
29.7656242
11
52.0898423
21
17.3632808
0
LINE
8
DEFAULT_255_2_778
10
52.0898423
20
17.3632808
11
27.2851555
21
17.3632808
0
LINE
8
DEFAULT_255_2_778
10
27.2851555
20
17.3632808
11
27.2851555
21
29.7656242
0
LINE
8
DEFAULT_255_2_778
10
46.9738669
20
26.1999538
11
42.3229882
21
23.3312941
0
LINE
8
DEFAULT_255_2_778
10
42.3229882
20
23.3312941
11
46.9738669
21
20.4638699
0
LINE
8
DEFAULT_255_2_778
10
33.5644508
20
19.998782
11
33.5644508
21
26.1999538
0
LINE
8
DEFAULT_255_2_778
10
33.5644508
20
26.1999538
11
36.6650367
21
26.1999538
0
LINE
8
DEFAULT_255_2_778
10
36.6650367
20
26.1999538
11
37.4401831
21
25.4248073
0
LINE
8
DEFAULT_255_2_778
10
37.4401831
20
25.4248073
11
37.4401831
21
23.8745144
0
LINE
8
DEFAULT_255_2_778
10
37.4401831
20
23.8745144
11
36.6650367
21
23.0993679
0
LINE
8
DEFAULT_255_2_778
10
36.6650367
20
23.0993679
11
33.5644508
21
23.0993679
0
LINE
8
DEFAULT_4_2_778
10
42.7880847
20
52.0898423
11
36.586913
21
52.0898423
0
LINE
8
DEFAULT_4_2_778
10
39.6874989
20
55.1904348
11
39.6874989
21
52.0898489
0
LINE
8
DEFAULT_4_2_778
10
36.586913
20
-4.9609374
11
42.7880847
21
-4.9609374
0
LINE
8
DEFAULT_4_2_778
10
39.6874989
20
-8.0615298
11
39.6874989
21
-4.960944
0
ENDSEC
0
EOF