0
SECTION
2
HEADER
0
ENDSEC
0
SECTION
2
TABLES
0
TABLE
2
LTYPE
0
LTYPE
72
65
70
64
2
CONTINUOUS
3
______
73
0
40
0
0
ENDTAB
0
TABLE
2
LAYER
0
LAYER
2
DEFAULT_255_2_778
70
0
62
255
6
CONTINUOUS
0
LAYER
2
DEFAULT_4_2_778
70
0
62
4
6
CONTINUOUS
0
ENDTAB
0
ENDSEC
0
SECTION
2
ENTITIES
0
LINE
8
DEFAULT_255_2_778
10
39.6874989
20
54.570311
11
39.6874989
21
29.7656242
0
LINE
8
DEFAULT_255_2_778
10
39.6874989
20
-7.441406
11
39.6874989
21
17.3632808
0
LINE
8
DEFAULT_255_2_778
10
27.2851555
20
29.7656242
11
52.0898423
21
29.7656242
0
LINE
8
DEFAULT_255_2_778
10
52.0898423
20
29.7656242
11
52.0898423
21
17.3632808
0
LINE
8
DEFAULT_255_2_778
10
52.0898423
20
17.3632808
11
27.2851555
21
17.3632808
0
LINE
8
DEFAULT_255_2_778
10
27.2851555
20
17.3632808
11
27.2851555
21
29.7656242
0
LINE
8
DEFAULT_255_2_778
10
46.9738756
20
26.0449141
11
42.3229969
21
23.6413424
0
LINE
8
DEFAULT_255_2_778
10
42.3229969
20
23.6413424
11
46.9738756
21
21.2377666
0
LINE
8
DEFAULT_255_2_778
10
32.4011221
20
26.0449141
11
37.0520009
21
26.0449141
0
LINE
8
DEFAULT_255_2_778
10
37.0520009
20
26.0449141
11
32.4011221
21
21.2390061
0
LINE
8
DEFAULT_255_2_778
10
32.4011221
20
21.2390061
11
37.0520009
21
21.2390061
0
LINE
8
DEFAULT_4_2_778
10
42.7880847
20
52.027824
11
36.586913
21
52.027824
0
LINE
8
DEFAULT_4_2_778
10
39.6874989
20
55.1904315
11
39.6874989
21
52.0278339
0
LINE
8
DEFAULT_4_2_778
10
36.586913
20
-4.898919
11
42.7880847
21
-4.898919
0
LINE
8
DEFAULT_4_2_778
10
39.6874989
20
-8.0615265
11
39.6874989
21
-4.898929
0
ENDSEC
0
EOF