0
SECTION
2
HEADER
0
ENDSEC
0
SECTION
2
TABLES
0
TABLE
2
LTYPE
0
LTYPE
72
65
70
64
2
CONTINUOUS
3
______
73
0
40
0
0
ENDTAB
0
TABLE
2
LAYER
0
LAYER
2
DEFAULT_255_2_778
70
0
62
255
6
CONTINUOUS
0
LAYER
2
DEFAULT_4_2_778
70
0
62
4
6
CONTINUOUS
0
ENDTAB
0
ENDSEC
0
SECTION
2
ENTITIES
0
LINE
8
DEFAULT_255_2_778
10
27.2851555
20
29.7656242
11
52.0898423
21
29.7656242
0
LINE
8
DEFAULT_255_2_778
10
52.0898423
20
29.7656242
11
52.0898423
21
17.3632808
0
LINE
8
DEFAULT_255_2_778
10
52.0898423
20
17.3632808
11
27.2851555
21
17.3632808
0
LINE
8
DEFAULT_255_2_778
10
27.2851555
20
17.3632808
11
27.2851555
21
29.7656242
0
LINE
8
DEFAULT_255_2_778
10
39.6874989
20
54.570311
11
39.6874989
21
29.7656242
0
LINE
8
DEFAULT_255_2_778
10
39.6874989
20
-7.441406
11
39.6874989
21
17.3632808
0
ARC
8
0
10
44.1438693
20
22.3734625
40
6.1703914
50
159.0449737
51
165.0366871
0
ARC
8
0
10
43.5671472
20
22.595688
40
5.5523373
50
153.39483
51
159.0580973
0
ARC
8
0
10
42.8498549
20
22.9567188
40
4.7493126
50
147.5563923
51
153.4137787
0
ARC
8
0
10
42.0755121
20
23.4518974
40
3.830182
50
140.8912588
51
147.5934897
0
ARC
8
0
10
41.359329
20
24.0366826
40
2.9055812
50
133.1886659
51
140.9306977
0
ARC
8
0
10
40.8037371
20
24.63193
40
2.0913362
50
123.665606
51
133.2518068
0
ARC
8
0
10
40.4952778
20
25.0889304
40
1.5399915
50
115.4242372
51
123.5394521
0
ARC
8
0
10
40.3613372
20
25.367989
40
1.2304563
50
107.7943916
51
115.370019
0
ARC
8
0
10
40.2956772
20
25.5747606
40
1.0135112
50
97.7774707
51
107.8323301
0
ARC
8
0
10
40.2765313
20
25.704168
40
0.8827043
50
90.0557423
51
97.6828589
0
ARC
8
0
10
40.2769566
20
25.7761156
40
0.8107573
50
75.0397156
51
90.0907426
0
ARC
8
0
10
40.2499844
20
25.7165278
40
0.8753534
50
42.0090067
51
74.3409469
0
ARC
8
0
10
39.9272397
20
25.4065793
40
1.3226752
50
28.8148737
51
42.6288111
0
ARC
8
0
10
39.4054607
20
25.1151342
40
1.9203234
50
18.8839549
51
28.9303762
0
ARC
8
0
10
38.7005049
20
24.8697343
40
2.666763
50
11.3111003
51
18.9705573
0
ARC
8
0
10
37.8664632
20
24.7008046
40
3.5177387
50
4.6959378
51
11.3446991
0
ARC
8
0
10
37.0574239
20
24.6294583
40
4.3299058
50
359.9361502
51
4.7604142
0
ARC
8
0
10
36.4153247
20
24.6279337
40
4.9720035
50
356.0905711
51
359.961965
0
ARC
8
0
10
35.9000839
20
24.6623147
40
5.4883894
50
352.5141241
51
356.099213
0
ARC
8
0
10
35.4669858
20
24.7190209
40
5.9251841
50
348.7133087
51
352.5160766
0
ARC
8
0
10
35.1365556
20
24.7843125
40
6.2620025
50
344.9872815
51
348.7191865
0
ARC
8
0
10
35.2236912
20
24.755432
40
6.1703623
50
339.0449542
51
345.0367155
0
ARC
8
0
10
35.8003881
20
24.5332148
40
5.5523348
50
333.3948032
51
339.0580887
0
ARC
8
0
10
36.5177187
20
24.1721599
40
4.7492653
50
327.5563422
51
333.4137998
0
ARC
8
0
10
37.2920117
20
23.6770092
40
3.8301918
50
320.8912512
51
327.5934748
0
ARC
8
0
10
38.0082026
20
23.0922226
40
2.9055839
50
313.1885822
51
320.9306116
0
ARC
8
0
10
38.5638116
20
22.4969569
40
2.0913142
50
303.6653941
51
313.2516947
0
ARC
8
0
10
38.8722598
20
22.03997
40
1.539987
50
295.423993
51
303.5392274
0
ARC
8
0
10
39.0062073
20
21.7608943
40
1.2304333
50
287.7941417
51
295.3697677
0
ARC
8
0
10
39.0718563
20
21.5541588
40
1.013526
50
277.7774555
51
287.8319911
0
ARC
8
0
10
39.0910091
20
21.4247055
40
0.8826727
50
270.0555364
51
277.6828
0
ARC
8
0
10
39.0905808
20
21.3527898
40
0.8107577
50
255.0397184
51
270.0907317
0
ARC
8
0
10
39.1175547
20
21.4123701
40
0.8753471
50
222.0085583
51
254.3407078
0
ARC
8
0
10
39.4403129
20
21.7223329
40
1.3226884
50
208.8146781
51
222.6285742
0
ARC
8
0
10
39.9621253
20
22.013794
40
1.9203734
50
198.8839273
51
208.9301782
0
ARC
8
0
10
40.6670725
20
22.25919
40
2.6668038
50
191.3111038
51
198.9705177
0
ARC
8
0
10
41.5011299
20
22.4281237
40
3.5177955
50
184.6959972
51
191.3447144
0
ARC
8
0
10
42.310195
20
22.4994698
40
4.3299883
50
179.9362143
51
184.7604305
0
ARC
8
0
10
42.9519174
20
22.5009989
40
4.9717091
50
176.09049
51
179.9620693
0
ARC
8
0
10
43.4674977
20
22.4666011
40
5.4884349
50
172.514191
51
176.0992058
0
ARC
8
0
10
43.9005699
20
22.4098907
40
5.9252044
50
168.7133606
51
172.5160655
0
ARC
8
0
10
44.230949
20
22.3446041
40
6.2619719
50
164.9873162
51
168.719189
0
LINE
8
DEFAULT_255_2_778
10
38.1827076
20
23.9666606
11
38.1827076
21
23.9666606
0
LINE
8
DEFAULT_255_2_778
10
38.137206
20
23.5644525
11
41.2377918
21
23.5644525
0
LINE
8
DEFAULT_4_2_778
10
42.7880847
20
52.027824
11
36.586913
21
52.027824
0
LINE
8
DEFAULT_4_2_778
10
39.6874989
20
55.1904315
11
39.6874989
21
52.0278339
0
LINE
8
DEFAULT_4_2_778
10
36.586913
20
-4.898919
11
42.7880847
21
-4.898919
0
LINE
8
DEFAULT_4_2_778
10
39.6874989
20
-8.0615265
11
39.6874989
21
-4.898929
0
ENDSEC
0
EOF