0
SECTION
2
HEADER
0
ENDSEC
0
SECTION
2
TABLES
0
TABLE
2
LTYPE
0
LTYPE
72
65
70
64
2
CONTINUOUS
3
______
73
0
40
0
0
ENDTAB
0
TABLE
2
LAYER
0
LAYER
2
DEFAULT_255_2_778
70
0
62
255
6
CONTINUOUS
0
LAYER
2
DEFAULT_4_2_778
70
0
62
4
6
CONTINUOUS
0
ENDTAB
0
ENDSEC
0
SECTION
2
ENTITIES
0
LINE
8
DEFAULT_255_2_778
10
34.261477
20
54.570311
11
34.261477
21
-7.441406
0
ARC
8
0
10
34.3645186
20
23.5685721
40
7.8545073
50
169.5899964
51
180.0300509
0
ARC
8
0
10
34.2200689
20
23.5934487
40
7.7079405
50
156.0474761
51
169.5778534
0
ARC
8
0
10
34.2514421
20
23.5745312
40
7.7442934
50
114.3111921
51
156.0138023
0
ARC
8
0
10
34.2321407
20
23.6068865
40
7.7068623
50
100.7008727
51
114.279452
0
ARC
8
0
10
34.2569108
20
23.4664081
40
7.8494973
50
90.1375109
51
100.688136
0
ARC
8
0
10
34.2615416
20
23.2629633
40
8.0529538
50
90.0004598
51
90.1669845
0
ARC
8
0
10
34.2655966
20
23.4614108
40
7.8545073
50
79.5899964
51
90.0300509
0
ARC
8
0
10
34.2904732
20
23.6058605
40
7.7079405
50
66.0474761
51
79.5778534
0
ARC
8
0
10
34.2715557
20
23.5744874
40
7.7442934
50
24.3111921
51
66.0138023
0
ARC
8
0
10
34.303911
20
23.5937887
40
7.7068623
50
10.7008727
51
24.279452
0
ARC
8
0
10
34.1634326
20
23.5690187
40
7.8494973
50
0.1375109
51
10.688136
0
ARC
8
0
10
33.9599878
20
23.5643879
40
8.0529538
50
0.0004598
51
0.1669845
0
ARC
8
0
10
34.1584353
20
23.5603329
40
7.8545073
50
349.5899964
51
0.0300509
0
ARC
8
0
10
34.302885
20
23.5354563
40
7.7079405
50
336.0474761
51
349.5778534
0
ARC
8
0
10
34.2715118
20
23.5543737
40
7.7442934
50
294.3111921
51
336.0138023
0
ARC
8
0
10
34.2908132
20
23.5220185
40
7.7068623
50
280.7008727
51
294.279452
0
ARC
8
0
10
34.2660432
20
23.6624968
40
7.8494973
50
270.1375109
51
280.688136
0
ARC
8
0
10
34.2614123
20
23.8659417
40
8.0529538
50
270.0004598
51
270.1669845
0
ARC
8
0
10
34.2573574
20
23.6674941
40
7.8545073
50
259.5899964
51
270.0300509
0
ARC
8
0
10
34.2324808
20
23.5230444
40
7.7079405
50
246.0474761
51
259.5778534
0
ARC
8
0
10
34.2513982
20
23.5544176
40
7.7442934
50
204.3111921
51
246.0138023
0
ARC
8
0
10
34.219043
20
23.5351162
40
7.7068623
50
190.7008727
51
204.279452
0
ARC
8
0
10
34.3595213
20
23.5598863
40
7.8494973
50
180.1375109
51
190.688136
0
ARC
8
0
10
34.5629662
20
23.5645171
40
8.0529538
50
180.0004598
51
180.1669845
0
LINE
8
DEFAULT_255_2_778
10
26.5100123
20
23.5644525
11
26.5100123
21
23.5644525
0
LINE
8
DEFAULT_255_2_778
10
52.8649855
20
23.5644525
11
42.3229936
21
23.5644525
0
LINE
8
DEFAULT_4_2_778
10
37.3620628
20
52.027824
11
31.1608911
21
52.027824
0
LINE
8
DEFAULT_4_2_778
10
34.261477
20
55.1904315
11
34.261477
21
52.0278339
0
LINE
8
DEFAULT_4_2_778
10
31.1608911
20
-4.898919
11
37.3620628
21
-4.898919
0
LINE
8
DEFAULT_4_2_778
10
34.261477
20
-8.0615265
11
34.261477
21
-4.898929
0
ENDSEC
0
EOF