0
SECTION
2
HEADER
0
ENDSEC
0
SECTION
2
TABLES
0
TABLE
2
LTYPE
0
LTYPE
72
65
70
64
2
CONTINUOUS
3
______
73
0
40
0
0
ENDTAB
0
TABLE
2
LAYER
0
LAYER
2
DEFAULT_255_2_778
70
0
62
255
6
CONTINUOUS
0
LAYER
2
DEFAULT_4_2_778
70
0
62
4
6
CONTINUOUS
0
ENDTAB
0
ENDSEC
0
SECTION
2
ENTITIES
0
ARC
8
0
10
39.9846953
20
2.7948419
40
16.4202434
50
172.9895352
51
180.0150782
0
ARC
8
0
10
39.6912657
20
2.8298845
40
16.1247306
50
165.0467896
51
172.9858661
0
ARC
8
0
10
39.5852346
20
2.8568199
40
16.0153398
50
154.989392
51
165.0420103
0
ARC
8
0
10
39.6387341
20
2.8291295
40
16.07553
50
139.8991367
51
154.9805705
0
ARC
8
0
10
39.6703023
20
2.8079532
40
16.113318
50
118.0962185
51
139.9138443
0
ARC
8
0
10
39.6213582
20
2.8920418
40
16.0160886
50
107.2448716
51
118.0834305
0
ARC
8
0
10
39.6394091
20
2.8281418
40
16.0824675
50
98.6499034
51
107.2388007
0
ARC
8
0
10
39.6766658
20
2.5780721
40
16.3352961
50
91.6120421
51
98.6471791
0
ARC
8
0
10
39.6872305
20
2.3292104
40
16.5843568
50
89.9990728
51
91.6243402
0
ARC
8
0
10
39.6918198
20
2.4933437
40
16.4202239
50
82.9895312
51
90.015077
0
ARC
8
0
10
39.7268608
20
2.7867647
40
16.1247198
50
75.0467823
51
82.9858599
0
ARC
8
0
10
39.7537934
20
2.8927838
40
16.0153415
50
64.9893896
51
75.0420043
0
ARC
8
0
10
39.7261006
20
2.839279
40
16.0755375
50
49.8991413
51
64.9805687
0
ARC
8
0
10
39.7049235
20
2.8077081
40
16.113328
50
28.0962364
51
49.9138526
0
ARC
8
0
10
39.7890366
20
2.8566635
40
16.0160715
50
17.2448826
51
28.0834544
0
ARC
8
0
10
39.7251532
20
2.8386142
40
16.082434
50
8.6499081
51
17.2388237
0
ARC
8
0
10
39.4751031
20
2.8013569
40
16.3352433
50
1.6120364
51
8.6471962
0
ARC
8
0
10
39.2261886
20
2.790789
40
16.5843568
50
359.9990728
51
1.6243402
0
ARC
8
0
10
39.3902498
20
2.7862043
40
16.4202961
50
352.9895408
51
0.0150612
0
ARC
8
0
10
39.6837317
20
2.7511597
40
16.1247312
50
345.0467796
51
352.985856
0
ARC
8
0
10
39.7897612
20
2.7242263
40
16.0153424
50
334.989377
51
345.0419946
0
ARC
8
0
10
39.7362514
20
2.7519237
40
16.075545
50
319.8991264
51
334.9805487
0
ARC
8
0
10
39.7046867
20
2.7730971
40
16.1133284
50
298.0962196
51
319.9138338
0
ARC
8
0
10
39.7536308
20
2.6890107
40
16.0161009
50
287.2448795
51
298.0834282
0
ARC
8
0
10
39.7355879
20
2.7528841
40
16.082452
50
278.6499078
51
287.2388094
0
ARC
8
0
10
39.6983316
20
3.0029506
40
16.3352775
50
271.6120442
51
278.647184
0
ARC
8
0
10
39.6877673
20
3.2518022
40
16.5843282
50
269.9990728
51
271.6243416
0
ARC
8
0
10
39.6831777
20
3.087717
40
16.4202434
50
262.9895352
51
270.0150782
0
ARC
8
0
10
39.648135
20
2.7942875
40
16.1247306
50
255.0467896
51
262.9858661
0
ARC
8
0
10
39.6211996
20
2.6882564
40
16.0153398
50
244.989392
51
255.0420103
0
ARC
8
0
10
39.64889
20
2.7417558
40
16.07553
50
229.8991367
51
244.9805705
0
ARC
8
0
10
39.6700664
20
2.7733241
40
16.113318
50
208.0962185
51
229.9138443
0
ARC
8
0
10
39.5859777
20
2.7243799
40
16.0160886
50
197.2448716
51
208.0834305
0
ARC
8
0
10
39.6498778
20
2.7424309
40
16.0824675
50
188.6499034
51
197.2388007
0
ARC
8
0
10
39.8999475
20
2.7796875
40
16.3352961
50
181.6120421
51
188.6471791
0
ARC
8
0
10
40.1488092
20
2.7902523
40
16.5843568
50
179.9990728
51
181.6243402
0
LINE
8
DEFAULT_255_2_778
10
23.5644525
20
2.7905207
11
23.5644525
21
2.7905207
0
LINE
8
DEFAULT_255_2_778
10
39.6874989
20
36.2768478
11
39.6874989
21
18.9135671
0
LINE
8
DEFAULT_255_2_778
10
45.8886706
20
6.3338685
11
43.2308468
21
8.9916924
0
LINE
8
DEFAULT_255_2_778
10
43.2308468
20
8.9916924
11
36.144151
21
8.9916924
0
LINE
8
DEFAULT_255_2_778
10
36.144151
20
8.9916924
11
33.4863272
21
6.3338685
0
LINE
8
DEFAULT_255_2_778
10
33.4863272
20
6.3338685
11
33.4863272
21
-0.7528272
0
LINE
8
DEFAULT_255_2_778
10
33.4863272
20
-0.7528272
11
36.144151
21
-3.4106511
0
LINE
8
DEFAULT_255_2_778
10
36.144151
20
-3.4106511
11
43.2308468
21
-3.4106511
0
LINE
8
DEFAULT_255_2_778
10
43.2308468
20
-3.4106511
11
45.8886706
21
-0.7528272
0
LINE
8
DEFAULT_255_2_778
10
45.8886706
20
-0.7528272
11
45.8886706
21
2.7905207
0
LINE
8
DEFAULT_255_2_778
10
45.8886706
20
2.7905207
11
39.6874989
21
2.7905207
0
LINE
8
DEFAULT_4_2_778
10
42.7880847
20
36.2148295
11
36.586913
21
36.2148295
0
LINE
8
DEFAULT_4_2_778
10
39.6874989
20
39.377437
11
39.6874989
21
36.2148394
0
ENDSEC
0
EOF