0
SECTION
2
HEADER
0
ENDSEC
0
SECTION
2
TABLES
0
TABLE
2
LTYPE
0
LTYPE
72
65
70
64
2
CONTINUOUS
3
______
73
0
40
0
0
ENDTAB
0
TABLE
2
LAYER
0
LAYER
2
DEFAULT_255_2_778
70
0
62
255
6
CONTINUOUS
0
LAYER
2
DEFAULT_4_2_778
70
0
62
4
6
CONTINUOUS
0
ENDTAB
0
ENDSEC
0
SECTION
2
ENTITIES
0
LINE
8
DEFAULT_255_2_778
10
39.6874989
20
70.073227
11
39.6874989
21
50.2294776
0
LINE
8
DEFAULT_255_2_778
10
39.6874989
20
1.8603515
11
39.6874989
21
20.4638666
0
LINE
8
DEFAULT_255_2_778
10
24.8046868
20
50.2294776
11
54.570311
21
50.2294776
0
LINE
8
DEFAULT_255_2_778
10
54.570311
20
50.2294776
11
54.570311
21
20.4638534
0
LINE
8
DEFAULT_255_2_778
10
54.570311
20
20.4638534
11
24.8046868
21
20.4638534
0
LINE
8
DEFAULT_255_2_778
10
24.8046868
20
20.4638534
11
24.8046868
21
50.2294776
0
LINE
8
DEFAULT_255_2_778
10
54.570311
20
50.2294776
11
24.8046868
21
20.4638534
0
LINE
8
DEFAULT_255_2_778
10
42.1679808
20
26.6650251
11
50.8496212
21
26.6650251
0
LINE
8
DEFAULT_255_2_778
10
45.2685667
20
24.1845564
11
47.7490353
21
24.1845564
0
LINE
8
DEFAULT_255_2_778
10
42.167961
20
24.1845564
11
44.0283125
21
24.1845564
0
LINE
8
DEFAULT_255_2_778
10
50.8496146
20
24.1845564
11
48.9892631
21
24.1845564
0
LINE
8
DEFAULT_4_2_778
10
43.4082085
20
69.9492168
11
35.8923884
21
69.9492168
0
LINE
8
DEFAULT_4_2_778
10
39.6502985
20
73.7939366
11
39.6502985
21
69.9492102
0
LINE
8
DEFAULT_4_2_778
10
35.893632
20
1.971966
11
43.4094521
21
1.971966
0
LINE
8
DEFAULT_4_2_778
10
39.6502985
20
-1.8603449
11
39.6502985
21
1.9843816
0
LINE
8
DEFAULT_255_2_778
10
28.5254031
20
46.5087745
11
37.2070434
21
46.5087745
0
LINE
8
DEFAULT_255_2_778
10
31.6259889
20
44.0283059
11
34.1064576
21
44.0283059
0
LINE
8
DEFAULT_255_2_778
10
28.5253832
20
44.0283059
11
30.3857347
21
44.0283059
0
LINE
8
DEFAULT_255_2_778
10
37.2070368
20
44.0283059
11
35.3466853
21
44.0283059
0
ENDSEC
0
EOF