0
SECTION
2
HEADER
0
ENDSEC
0
SECTION
2
TABLES
0
TABLE
2
LTYPE
0
LTYPE
72
65
70
64
2
CONTINUOUS
3
______
73
0
40
0
0
ENDTAB
0
TABLE
2
LAYER
0
LAYER
2
DEFAULT_255_2_778
70
0
62
255
6
CONTINUOUS
0
LAYER
2
DEFAULT_4_2_778
70
0
62
4
6
CONTINUOUS
0
ENDTAB
0
ENDSEC
0
SECTION
2
ENTITIES
0
LINE
8
DEFAULT_255_2_778
10
40.3076293
20
65.1123029
11
40.3076293
21
47.7490221
0
LINE
8
DEFAULT_255_2_778
10
40.3076293
20
-0.6201172
11
40.3076293
21
16.7431636
0
LINE
8
DEFAULT_255_2_778
10
24.1845696
20
47.7936768
11
55.1904282
21
47.7936768
0
LINE
8
DEFAULT_255_2_778
10
55.1904282
20
47.7936768
11
55.1904282
21
16.7431706
0
LINE
8
DEFAULT_255_2_778
10
55.1904282
20
16.7431706
11
24.1845696
21
16.7431706
0
LINE
8
DEFAULT_255_2_778
10
24.1845696
20
16.7431706
11
24.1845696
21
47.7936768
0
ARC
8
0
10
39.0770477
20
34.7299987
40
13.2132694
50
145.7728391
51
146.487335
0
ARC
8
0
10
38.0232225
20
35.4484696
40
11.9378301
50
144.6741234
51
145.7790358
0
ARC
8
0
10
36.9255874
20
36.2263483
40
10.5925057
50
143.5407863
51
144.67397
0
ARC
8
0
10
35.9936282
20
36.9148885
40
9.4337842
50
142.3810997
51
143.5405558
0
ARC
8
0
10
35.1394635
20
37.5737884
40
8.3550136
50
140.9958419
51
142.3846602
0
ARC
8
0
10
34.3212007
20
38.2370941
40
7.3016722
50
139.3826893
51
140.9994467
0
ARC
8
0
10
33.6080189
20
38.848633
40
6.3622
50
137.719143
51
139.3819674
0
ARC
8
0
10
33.0291495
20
39.3748605
40
5.5798924
50
136.0290001
51
137.7180056
0
ARC
8
0
10
32.5075555
20
39.8790469
40
4.8544522
50
133.8824528
51
136.0374846
0
ARC
8
0
10
32.032377
20
40.3734207
40
4.1687407
50
131.4872818
51
133.8851924
0
ARC
8
0
10
31.6400872
20
40.8172082
40
3.5764244
50
128.8645451
51
131.489257
0
ARC
8
0
10
31.3162646
20
41.2195858
40
3.0599279
50
125.8209242
51
128.8710238
0
ARC
8
0
10
31.0536748
20
41.5836926
40
2.6110101
50
122.4085584
51
125.8247399
0
ARC
8
0
10
30.8455466
20
41.9123363
40
2.2220064
50
118.3044583
51
122.4195366
0
ARC
8
0
10
30.685208
20
42.2109049
40
1.8831088
50
113.3390039
51
118.3166193
0
ARC
8
0
10
30.5743622
20
42.4684624
40
1.6027115
50
107.402986
51
113.3483242
0
ARC
8
0
10
30.5092298
20
42.6770382
40
1.3842029
50
100.0622394
51
107.4125912
0
ARC
8
0
10
30.4828144
20
42.8260871
40
1.2328312
50
90.3779753
51
100.0637489
0
ARC
8
0
10
30.4812762
20
42.8642231
40
1.1946865
50
90.0018458
51
90.316269
0
ARC
8
0
10
30.4699628
20
42.7837001
40
1.2752591
50
61.5597893
51
89.4934266
0
ARC
8
0
10
30.2199574
20
42.2753791
40
1.8414306
50
53.9324632
51
62.2521165
0
ARC
8
0
10
29.8355257
20
41.7456251
40
2.4959733
50
47.6251956
51
53.9586622
0
ARC
8
0
10
29.2001663
20
41.0461649
40
3.4409193
50
42.9924948
51
47.6592915
0
ARC
8
0
10
28.2067687
20
40.1180696
40
4.8004038
50
39.454161
51
43.0097828
0
ARC
8
0
10
26.5391587
20
38.7452728
40
6.9603793
50
36.6834314
51
39.4564773
0
ARC
8
0
10
23.1907303
20
36.2522682
40
11.1349503
50
34.6563664
51
36.6779392
0
ARC
8
0
10
6.4059067
20
24.7316549
40
31.4930737
50
33.3070918
51
34.5323815
0
LINE
8
0
10
32.7259092
20
42.0253289
11
32.7263746
21
42.0246262
0
ARC
8
0
10
58.7046966
20
59.0906226
40
31.0824942
50
213.3022006
51
214.5576562
0
ARC
8
0
10
41.9514031
20
47.577111
40
10.754373
50
214.6697478
51
216.9344911
0
ARC
8
0
10
38.6184109
20
45.0735149
40
6.585821
50
216.9485674
51
219.9758282
0
ARC
8
0
10
37.0368716
20
43.7479111
40
4.5222095
50
219.9790183
51
223.7555412
0
ARC
8
0
10
36.1048662
20
42.853683
40
3.2305921
50
223.7317888
51
228.7934115
0
ARC
8
0
10
35.5184215
20
42.1821207
40
2.3390141
50
228.7639231
51
235.498627
0
ARC
8
0
10
35.1661161
20
41.6662861
40
1.7143543
50
235.4370394
51
245.143394
0
ARC
8
0
10
34.9773503
20
41.2396205
40
1.2478924
50
244.7728935
51
269.6749697
0
ARC
8
0
10
34.969033
20
41.2197128
40
1.2279654
50
270.0577762
51
279.6234336
0
ARC
8
0
10
34.9445875
20
41.3634298
40
1.3737465
50
279.626604
51
287.0648772
0
ARC
8
0
10
34.8815657
20
41.5695611
40
1.5892964
50
287.0561174
51
293.0862839
0
ARC
8
0
10
34.7731661
20
41.8247459
40
1.8665501
50
293.0757309
51
298.0771692
0
ARC
8
0
10
34.6135472
20
42.1246584
40
2.2062935
50
298.0687843
51
302.3272763
0
ARC
8
0
10
34.4004069
20
42.4624119
40
2.6056755
50
302.3160589
51
305.8501625
0
ARC
8
0
10
34.140575
20
42.8229596
40
3.0500932
50
305.839756
51
308.7525249
0
ARC
8
0
10
33.8153325
20
43.2279848
40
3.569543
50
308.754354
51
311.5541663
0
ARC
8
0
10
33.4068791
20
43.6894084
40
4.1857782
50
311.54845
51
313.9735294
0
ARC
8
0
10
32.933676
20
44.1805417
40
4.8677847
50
313.9681036
51
316.050946
0
ARC
8
0
10
32.4223224
20
44.674453
40
5.578721
50
316.0436934
51
317.7206671
0
ARC
8
0
10
31.8387419
20
45.2047917
40
6.36728
50
317.722625
51
319.414331
0
ARC
8
0
10
31.1283727
20
45.8134924
40
7.3027695
50
319.4134443
51
320.988511
0
ARC
8
0
10
30.3252822
20
46.4646175
40
8.3366543
50
320.9856885
51
322.3624187
0
ARC
8
0
10
29.4846141
20
47.113662
40
9.398719
50
322.35873
51
323.5009162
0
ARC
8
0
10
28.5364929
20
47.8147567
40
10.5778997
50
323.5028961
51
324.6981433
0
ARC
8
0
10
27.5046318
20
48.5464616
40
11.8428616
50
324.6939721
51
325.6233324
0
ARC
8
0
10
26.4695691
20
49.2546699
40
13.0970203
50
325.6229537
51
326.4967804
0
LINE
8
DEFAULT_255_2_778
10
55.1904282
20
47.7936573
11
24.1845696
21
16.5893613
0
LINE
8
DEFAULT_255_2_778
10
42.7880847
20
22.9443229
11
51.4697251
21
22.9443229
0
LINE
8
DEFAULT_255_2_778
10
45.8886706
20
20.4638542
11
48.3691393
21
20.4638542
0
LINE
8
DEFAULT_255_2_778
10
42.7880847
20
20.4638542
11
44.6484363
21
20.4638542
0
LINE
8
DEFAULT_255_2_778
10
51.4697251
20
20.4638542
11
49.6093736
21
20.4638542
0
LINE
8
DEFAULT_4_2_778
10
43.4082151
20
65.0502978
11
37.2070434
21
65.0502978
0
LINE
8
DEFAULT_4_2_778
10
40.3076293
20
68.2128788
11
40.3076293
21
65.0502812
0
LINE
8
DEFAULT_4_2_778
10
37.2070434
20
-0.5581121
11
43.4082151
21
-0.5581121
0
LINE
8
DEFAULT_4_2_778
10
40.3076293
20
-3.7206931
11
40.3076293
21
-0.5580955
0
ENDSEC
0
EOF