0
SECTION
2
HEADER
0
ENDSEC
0
SECTION
2
TABLES
0
TABLE
2
LTYPE
0
LTYPE
72
65
70
64
2
CONTINUOUS
3
______
73
0
40
0
0
ENDTAB
0
TABLE
2
LAYER
0
LAYER
2
DEFAULT_255_2_778
70
0
62
255
6
CONTINUOUS
0
LAYER
2
DEFAULT_4_2_778
70
0
62
4
6
CONTINUOUS
0
ENDTAB
0
ENDSEC
0
SECTION
2
ENTITIES
0
LINE
8
DEFAULT_255_2_778
10
37.7314138
20
39.068612
11
50.2205817
21
39.068612
0
LINE
8
DEFAULT_255_2_778
10
50.2205817
20
39.068612
11
43.9759977
21
26.6662686
0
LINE
8
DEFAULT_255_2_778
10
43.9759977
20
26.6662686
11
37.7314138
21
39.068612
0
LINE
8
DEFAULT_255_2_778
10
44.0367734
20
64.8022542
11
44.0280933
21
39.0673916
0
LINE
8
DEFAULT_255_2_778
10
44.0367734
20
-0.3100553
11
44.0280933
21
26.6650416
0
LINE
8
DEFAULT_255_2_778
10
32.8599908
20
30.2140117
11
29.1543991
21
28.3314757
0
LINE
8
DEFAULT_255_2_778
10
29.1543991
20
28.3314757
11
33.2803867
21
27.829855
0
LINE
8
DEFAULT_255_2_778
10
33.2803867
20
27.829855
11
32.8599908
21
30.2140117
0
LINE
8
DEFAULT_255_2_778
10
33.1888403
20
29.0853781
11
37.7238831
21
29.9654398
0
LINE
8
DEFAULT_255_2_778
10
32.8599908
20
35.3498142
11
29.1543991
21
33.4672782
0
LINE
8
DEFAULT_255_2_778
10
29.1543991
20
33.4672782
11
33.2803867
21
32.9656535
0
LINE
8
DEFAULT_255_2_778
10
33.2803867
20
32.9656535
11
32.8599908
21
35.3498142
0
LINE
8
DEFAULT_255_2_778
10
33.1888403
20
34.221205
11
37.7238831
21
35.1012668
0
LINE
8
DEFAULT_255_2_778
10
37.7314138
20
26.6662686
11
50.2205817
21
26.6662686
0
LINE
8
DEFAULT_4_2_778
10
47.1386019
20
65.0502978
11
40.9374302
21
65.0502978
0
LINE
8
DEFAULT_4_2_778
10
44.0380161
20
68.2128788
11
44.0380161
21
65.0502812
0
LINE
8
DEFAULT_4_2_778
10
40.9374302
20
-0.5581121
11
47.1386019
21
-0.5581121
0
LINE
8
DEFAULT_4_2_778
10
44.0380161
20
-3.7206931
11
44.0380161
21
-0.5580955
0
ENDSEC
0
EOF