0
SECTION
2
HEADER
0
ENDSEC
0
SECTION
2
TABLES
0
TABLE
2
LTYPE
0
LTYPE
72
65
70
64
2
CONTINUOUS
3
______
73
0
40
0
0
ENDTAB
0
TABLE
2
LAYER
0
LAYER
2
DEFAULT_255_2_778
70
0
62
255
6
CONTINUOUS
0
LAYER
2
DEFAULT_4_2_778
70
0
62
4
6
CONTINUOUS
0
ENDTAB
0
ENDSEC
0
SECTION
2
ENTITIES
0
LINE
8
DEFAULT_255_2_778
10
45.8886706
20
39.0673685
11
33.4863272
21
39.0673685
0
LINE
8
DEFAULT_255_2_778
10
33.4863272
20
39.0673685
11
39.6874989
21
26.6650251
0
LINE
8
DEFAULT_255_2_778
10
39.6874989
20
26.6650251
11
45.8886706
21
39.0673685
0
LINE
8
DEFAULT_255_2_778
10
39.6874989
20
64.4921791
11
39.6874989
21
39.0673751
0
LINE
8
DEFAULT_255_2_778
10
39.6874989
20
26.6650317
11
39.6874989
21
-0.0000066
0
LINE
8
DEFAULT_255_2_778
10
45.8886706
20
26.6650251
11
33.4863272
21
26.6650251
0
LINE
8
DEFAULT_255_2_778
10
42.1679808
20
31.6259625
11
45.8886838
21
31.6259625
0
LINE
8
DEFAULT_4_2_778
10
42.7880847
20
65.0502978
11
36.586913
21
65.0502978
0
LINE
8
DEFAULT_4_2_778
10
39.6874989
20
68.2128788
11
39.6874989
21
65.0502812
0
LINE
8
DEFAULT_4_2_778
10
36.586913
20
-0.5581121
11
42.7880847
21
-0.5581121
0
LINE
8
DEFAULT_4_2_778
10
39.6874989
20
-3.7206931
11
39.6874989
21
-0.5580955
0
ENDSEC
0
EOF