0
SECTION
2
HEADER
0
ENDSEC
0
SECTION
2
TABLES
0
TABLE
2
LTYPE
0
LTYPE
72
65
70
64
2
CONTINUOUS
3
______
73
0
40
0
0
ENDTAB
0
TABLE
2
LAYER
0
LAYER
2
DEFAULT_255_2_778
70
0
62
255
6
CONTINUOUS
0
LAYER
2
DEFAULT_4_2_778
70
0
62
4
6
CONTINUOUS
0
ENDTAB
0
ENDSEC
0
SECTION
2
ENTITIES
0
LINE
8
DEFAULT_255_2_778
10
35.0366267
20
-23.5644525
11
35.0366267
21
-11.1621091
0
LINE
8
DEFAULT_255_2_778
10
47.4389701
20
1.2402343
11
35.0366267
21
-11.1621091
0
ARC
8
0
10
35.0523665
20
-11.1583416
40
3.1163279
50
162.2115662
51
180.0692683
0
ARC
8
0
10
35.0305275
20
-11.1561149
40
3.0948563
50
106.233035
51
162.1272995
0
ARC
8
0
10
35.0333422
20
-11.1825348
40
3.1210133
50
89.9397024
51
106.1470628
0
ARC
8
0
10
35.0403955
20
-11.1778489
40
3.116328
50
72.2115896
51
90.0692914
0
ARC
8
0
10
35.042623
20
-11.1560078
40
3.0948539
50
16.2330235
51
72.1273271
0
ARC
8
0
10
35.0161984
20
-11.1588242
40
3.1210159
50
359.9396963
51
16.1470565
0
ARC
8
0
10
35.0208869
20
-11.1658778
40
3.116328
50
342.2115896
51
0.0692914
0
ARC
8
0
10
35.042728
20
-11.1681054
40
3.0948539
50
286.2330235
51
342.1273271
0
ARC
8
0
10
35.0399116
20
-11.1416807
40
3.1210159
50
269.9396963
51
286.1470565
0
ARC
8
0
10
35.032858
20
-11.1463742
40
3.116323
50
252.211574
51
270.0692906
0
ARC
8
0
10
35.0306325
20
-11.1682081
40
3.0948563
50
196.2330519
51
252.1273159
0
ARC
8
0
10
35.0570552
20
-11.1653939
40
3.1210159
50
179.9396964
51
196.1470567
0
LINE
8
DEFAULT_255_2_778
10
31.9360409
20
-11.1621091
11
31.9360409
21
-11.1621091
0
LINE
8
DEFAULT_4_2_778
10
38.1372126
20
-22.9443485
11
31.9360409
21
-22.9443485
0
LINE
8
DEFAULT_4_2_778
10
35.0366267
20
-26.0449145
11
35.0366267
21
-22.9443287
0
ENDSEC
0
EOF