0
SECTION
2
HEADER
0
ENDSEC
0
SECTION
2
TABLES
0
TABLE
2
LTYPE
0
LTYPE
72
65
70
64
2
CONTINUOUS
3
______
73
0
40
0
0
ENDTAB
0
TABLE
2
LAYER
0
LAYER
2
DEFAULT_255_2_778
70
0
62
255
6
CONTINUOUS
0
LAYER
2
DEFAULT_4_2_778
70
0
62
4
6
CONTINUOUS
0
ENDTAB
0
ENDSEC
0
SECTION
2
ENTITIES
0
LINE
8
DEFAULT_255_2_778
10
33.4863272
20
40.9277332
11
45.8886706
21
40.9277332
0
LINE
8
DEFAULT_255_2_778
10
45.8886706
20
40.9277332
11
45.8886706
21
16.1230464
0
LINE
8
DEFAULT_255_2_778
10
45.8886706
20
16.1230464
11
33.4863272
21
16.1230464
0
LINE
8
DEFAULT_255_2_778
10
33.4863272
20
16.1230464
11
33.4863272
21
40.9277332
0
LINE
8
DEFAULT_255_2_778
10
39.6874989
20
59.5312483
11
39.6874989
21
31.6259757
0
LINE
8
DEFAULT_255_2_778
10
42.7880847
20
37.8271474
11
39.6874989
21
31.6259757
0
LINE
8
DEFAULT_255_2_778
10
39.6874989
20
31.6259757
11
36.586913
21
37.8271474
0
LINE
8
DEFAULT_255_2_778
10
42.7880847
20
19.2236323
11
39.6874989
21
25.424804
0
LINE
8
DEFAULT_255_2_778
10
39.6874989
20
25.424804
11
36.586913
21
19.2236323
0
LINE
8
DEFAULT_255_2_778
10
39.6874989
20
-2.4804687
11
39.6874989
21
25.424804
0
LINE
8
DEFAULT_4_2_778
10
36.586913
20
59.5312483
11
42.7880847
21
59.5312483
0
LINE
8
DEFAULT_4_2_778
10
39.6874989
20
62.6318408
11
39.6874989
21
59.531255
0
LINE
8
DEFAULT_4_2_778
10
42.7880847
20
-2.4804687
11
36.586913
21
-2.4804687
0
LINE
8
DEFAULT_4_2_778
10
39.6874989
20
-5.5810611
11
39.6874989
21
-2.4804753
0
ENDSEC
0
EOF