0
SECTION
2
HEADER
0
ENDSEC
0
SECTION
2
TABLES
0
TABLE
2
LTYPE
0
LTYPE
72
65
70
64
2
CONTINUOUS
3
______
73
0
40
0
0
ENDTAB
0
TABLE
2
LAYER
0
LAYER
2
DEFAULT_255_2_778
70
0
62
255
6
CONTINUOUS
0
LAYER
2
DEFAULT_4_2_778
70
0
62
4
6
CONTINUOUS
0
ENDTAB
0
ENDSEC
0
SECTION
2
ENTITIES
0
ARC
8
0
10
44.7179406
20
1.2266769
40
11.5698201
50
193.8876609
51
199.8354668
0
ARC
8
0
10
43.786566
20
0.8885458
40
10.5789687
50
199.8244407
51
206.1831984
0
ARC
8
0
10
42.8004261
20
0.4019568
40
9.479315
50
206.1739387
51
212.8669047
0
ARC
8
0
10
41.8264255
20
-0.2308807
40
8.3177857
50
212.8465042
51
220.5050296
0
ARC
8
0
10
40.9362383
20
-0.9953208
40
7.1444184
50
220.4805577
51
229.4469381
0
ARC
8
0
10
40.2251514
20
-1.8324881
40
6.046022
50
229.4090389
51
240.7071054
0
ARC
8
0
10
39.7090811
20
-2.8133138
40
4.9382046
50
240.3612033
51
269.7495907
0
ARC
8
0
10
39.6594373
20
-2.777229
40
4.9743214
50
270.3232238
51
301.7318414
0
ARC
8
0
10
39.0538751
20
-1.7011935
40
6.2082107
50
301.2621455
51
312.1222491
0
ARC
8
0
10
38.3077851
20
-0.86908
40
7.3258171
50
312.0853008
51
320.7718572
0
ARC
8
0
10
37.4004381
20
-0.1237506
40
8.5000333
50
320.7479799
51
328.1893701
0
ARC
8
0
10
36.3952187
20
0.5019649
40
9.684087
50
328.1783345
51
335.1194325
0
ARC
8
0
10
35.3825648
20
0.9748278
40
10.8017002
50
335.1039282
51
341.4051344
0
ARC
8
0
10
34.5516902
20
1.2596359
40
11.6800197
50
341.3806288
51
346.079446
0
LINE
8
DEFAULT_255_2_778
10
33.4863272
20
-7.751458
11
45.8886706
21
-7.751458
0
LINE
8
DEFAULT_255_2_778
10
39.6874989
20
-7.7514712
11
39.6874989
21
-23.8745177
0
LINE
8
DEFAULT_4_2_778
10
42.7880847
20
-23.8745044
11
36.586913
21
-23.8745044
0
LINE
8
DEFAULT_4_2_778
10
39.6874989
20
-26.9750969
11
39.6874989
21
-23.8745111
0
ENDSEC
0
EOF