0
SECTION
2
HEADER
0
ENDSEC
0
SECTION
2
TABLES
0
TABLE
2
LTYPE
0
LTYPE
72
65
70
64
2
CONTINUOUS
3
______
73
0
40
0
0
ENDTAB
0
TABLE
2
LAYER
0
ENDTAB
0
ENDSEC
0
SECTION
2
ENTITIES
0
ARC
8
0
10
80.2369312
20
18.5578321
40
69.0088634
50
171.2319511
51
172.7354636
0
ARC
8
0
10
74.808783
20
19.394827
40
63.516564
50
169.692425
51
171.2317483
0
ARC
8
0
10
69.9810837
20
20.2725599
40
58.6097222
50
168.1188403
51
169.6921671
0
ARC
8
0
10
65.6923665
20
21.1745946
40
54.2271703
50
166.5133518
51
168.1185642
0
ARC
8
0
10
61.8871944
20
22.0869088
40
50.3141595
50
164.87836
51
166.5130318
0
ARC
8
0
10
58.1239841
20
23.1081593
40
46.414841
50
162.7946498
51
164.8835242
0
ARC
8
0
10
54.3301131
20
24.2847354
40
42.442715
50
160.4532316
51
162.7969562
0
ARC
8
0
10
50.8458819
20
25.5229386
40
38.7450113
50
157.8816978
51
160.4548629
0
ARC
8
0
10
47.828474
20
26.7485159
40
35.4882046
50
155.2514075
51
157.8805192
0
ARC
8
0
10
45.1552042
20
27.9835661
40
32.5434273
50
152.158398
51
155.2557814
0
ARC
8
0
10
42.7289462
20
29.2667556
40
29.7987416
50
148.6402523
51
152.1613163
0
ARC
8
0
10
40.6572976
20
30.5303969
40
27.3721151
50
144.6791497
51
148.6422157
0
ARC
8
0
10
39.0071091
20
31.6992619
40
25.3498967
50
140.3695781
51
144.6783468
0
ARC
8
0
10
37.685883
20
32.7982417
40
23.6313565
50
134.576527
51
140.378512
0
ARC
8
0
10
36.7210657
20
33.7843982
40
22.2517365
50
124.6420567
51
134.5891249
0
ARC
8
0
10
36.73298
20
33.7324218
40
22.3012798
50
115.3483614
51
124.5913315
0
ARC
8
0
10
37.3102081
20
32.5267432
40
23.6380016
50
109.9177193
51
115.3616379
0
ARC
8
0
10
37.8931881
20
30.9201272
40
25.3471183
50
105.3458332
51
109.9194857
0
ARC
8
0
10
38.4500963
20
28.8943743
40
27.448028
50
101.360012
51
105.3478114
0
ARC
8
0
10
38.9314558
20
26.5069165
40
29.8835276
50
97.9013659
51
101.3632025
0
ARC
8
0
10
39.3110501
20
23.7784816
40
32.6382413
50
94.7748525
51
97.9029768
0
ARC
8
0
10
39.5677277
20
20.7270148
40
35.7004841
50
92.015284
51
94.7777111
0
ARC
8
0
10
39.6790422
20
17.7220523
40
38.707503
50
89.987804
51
92.0235332
0
ARC
8
0
10
39.7003311
20
18.0853413
40
38.3442154
50
87.4319993
51
90.0194994
0
ARC
8
0
10
39.8461561
20
21.335391
40
35.0908958
50
84.6963701
51
87.4320969
0
ARC
8
0
10
40.1012716
20
24.0947916
40
32.3197273
50
81.9400488
51
84.6945295
0
ARC
8
0
10
40.4623688
20
26.618761
40
29.770061
50
78.4804535
51
81.947067
0
ARC
8
0
10
40.9262326
20
28.8969667
40
27.4451114
50
74.8045301
51
78.4795294
0
ARC
8
0
10
41.4591162
20
30.8490002
40
25.421651
50
70.2779456
51
74.8103885
0
ARC
8
0
10
42.0556076
20
32.5067115
40
23.6598894
50
64.5843584
51
70.2830173
0
ARC
8
0
10
42.6483242
20
33.7438114
40
22.2881353
50
55.1661552
51
64.5956995
0
ARC
8
0
10
42.6452864
20
33.7740971
40
22.2650207
50
45.3550369
51
55.1152218
0
ARC
8
0
10
41.6824624
20
32.7920137
40
23.6403365
50
39.6170841
51
45.3673888
0
ARC
8
0
10
40.3083124
20
31.6521375
40
25.4257225
50
34.9814745
51
39.6212331
0
ARC
8
0
10
38.5658377
20
30.4306483
40
27.5536912
50
31.0643976
51
34.9852819
0
ARC
8
0
10
36.4921437
20
29.1795705
40
29.97555
50
27.6593474
51
31.0675124
0
ARC
8
0
10
34.0578507
20
27.9030618
40
32.7242328
50
24.5429916
51
27.6604001
0
ARC
8
0
10
31.3429413
20
26.659949
40
35.7102089
50
21.9358306
51
24.5479483
0
ARC
8
0
10
28.2947739
20
25.4333304
40
38.9959228
50
19.368648
51
21.9345337
0
ARC
8
0
10
25.4670115
20
24.4294444
40
41.9965807
50
17.9160291
51
19.3812775
0
LINE
8
0
10
73.7937313
20
28.5242774
11
73.7937313
21
28.5246649
0
ARC
8
0
10
39.6433015
20
28.5265466
40
34.1504299
50
359.9968429
51
6.4184807
0
ARC
8
0
10
39.7377079
20
28.5361664
40
34.0555398
50
6.4201533
51
14.0043859
0
ARC
8
0
10
39.6996742
20
28.5253784
40
34.0950537
50
14.0065089
51
24.7492798
0
ARC
8
0
10
39.6639881
20
28.511041
40
34.1334645
50
24.7460578
51
42.7694564
0
ARC
8
0
10
39.7216711
20
28.5615509
40
34.0568212
50
42.7729739
51
51.200583
0
ARC
8
0
10
39.6957596
20
28.5277076
40
34.0994329
50
51.2022835
51
57.7923388
0
ARC
8
0
10
39.6331571
20
28.4303208
40
34.2152006
50
57.7905583
51
60.0001677
0
ARC
8
0
10
39.649641
20
28.4613394
40
34.1800957
50
59.9980997
51
64.2852041
0
ARC
8
0
10
39.6936102
20
28.5520208
40
34.0793171
50
64.285656
51
69.1670428
0
ARC
8
0
10
39.7031464
20
28.5760612
40
34.0534569
50
69.1676534
51
74.9901299
0
ARC
8
0
10
39.6940673
20
28.5403617
40
34.0902897
50
74.9909305
51
82.5121995
0
ARC
8
0
10
39.6875283
20
28.4924207
40
34.1386741
50
82.5118039
51
90.0004094
0
ARC
8
0
10
39.6865659
20
28.5014998
40
34.129595
50
89.9988293
51
100.9029929
0
ARC
8
0
10
39.6758424
20
28.560684
40
34.0694508
50
100.9041106
51
107.4128397
0
ARC
8
0
10
39.6719842
20
28.5743862
40
34.0552221
50
107.4135448
51
112.8439927
0
ARC
8
0
10
39.6928721
20
28.5255519
40
34.1083353
50
112.8444815
51
117.3093559
0
ARC
8
0
10
39.7375516
20
28.4384147
40
34.206259
50
117.3088895
51
120.0006912
0
ARC
8
0
10
39.7081051
20
28.4858184
40
34.150483
50
119.9976731
51
126.4192501
0
ARC
8
0
10
39.652583
20
28.5627507
40
34.055613
50
126.4209251
51
134.0050825
0
ARC
8
0
10
39.6809242
20
28.5352277
40
34.0950989
50
134.0072072
51
144.7498805
0
ARC
8
0
10
39.7111618
20
28.5115084
40
34.1334817
50
144.7466598
51
162.7699049
0
ARC
8
0
10
39.6385563
20
28.5362129
40
34.056817
50
162.77342
51
171.2009588
0
ARC
8
0
10
39.6807589
20
28.5307042
40
34.0993654
50
171.202659
51
177.7926689
0
ARC
8
0
10
39.796584
20
28.5251721
40
34.2153176
50
177.7908822
51
180.0004638
0
ARC
8
0
10
39.7316833
20
28.5230102
40
34.1504169
50
179.9968376
51
186.4184279
0
ARC
8
0
10
39.6373421
20
28.5133987
40
34.0555924
50
186.4201021
51
194.0042646
0
ARC
8
0
10
39.6753433
20
28.5241806
40
34.0950733
50
194.0063909
51
204.7490727
0
ARC
8
0
10
39.7110349
20
28.5385209
40
34.1334902
50
204.7458517
51
222.7690912
0
ARC
8
0
10
39.6533268
20
28.4879876
40
34.0568124
50
222.7726075
51
231.2001452
0
ARC
8
0
10
39.6792141
20
28.5218003
40
34.0993851
50
231.2018458
51
237.7918488
0
ARC
8
0
10
39.7419522
20
28.6194033
40
34.2154081
50
237.7900709
51
239.9996454
0
ARC
8
0
10
39.7249496
20
28.5884905
40
34.1801355
50
239.9984185
51
244.2854698
0
ARC
8
0
10
39.68102
20
28.4979065
40
34.0794618
50
244.2859335
51
249.1672467
0
ARC
8
0
10
39.6714474
20
28.4737964
40
34.0535236
50
249.1678729
51
254.9902772
0
ARC
8
0
10
39.6805094
20
28.5094431
40
34.0903009
50
254.9910823
51
262.512273
0
ARC
8
0
10
39.6870466
20
28.5573558
40
34.1386569
50
262.511874
51
270.0004097
0
ARC
8
0
10
39.6880103
20
28.5482917
40
34.1295927
50
269.9989165
51
280.9027858
0
ARC
8
0
10
39.6987318
20
28.4891157
40
34.0694569
50
280.9039039
51
287.4124553
0
ARC
8
0
10
39.7026099
20
28.4753567
40
34.055168
50
287.4131567
51
292.8434645
0
ARC
8
0
10
39.681771
20
28.5240911
40
34.1081701
50
292.8439434
51
297.3087156
0
ARC
8
0
10
39.6368744
20
28.6116485
40
34.206567
50
297.3082513
51
299.9999532
0
ARC
8
0
10
39.6669215
20
28.5641923
40
34.1504453
50
299.9961053
51
306.4177007
0
ARC
8
0
10
39.7224252
20
28.4872794
40
34.0556018
50
306.4193768
51
314.0035495
0
ARC
8
0
10
39.6940816
20
28.5148058
40
34.095092
50
314.005675
51
324.7483683
0
ARC
8
0
10
39.6638463
20
28.5385236
40
34.133472
50
324.7451493
51
342.7684289
0
ARC
8
0
10
39.7364823
20
28.5138087
40
34.0567748
50
342.7719422
51
351.1995051
0
ARC
8
0
10
39.6941877
20
28.5193327
40
34.0994167
50
351.2012052
51
357.791216
0
ARC
8
0
10
39.5784313
20
28.524859
40
34.2153001
50
357.7894396
51
359.999026
0
ENDSEC
0
EOF