0
SECTION
2
HEADER
0
ENDSEC
0
SECTION
2
TABLES
0
TABLE
2
LTYPE
0
LTYPE
72
65
70
64
2
CONTINUOUS
3
______
73
0
40
0
0
ENDTAB
0
TABLE
2
LAYER
0
LAYER
2
DEFAULT_255_2_778
70
0
62
255
6
CONTINUOUS
0
ENDTAB
0
ENDSEC
0
SECTION
2
ENTITIES
0
LINE
8
0
10
73.7937313
20
28.5242728
11
73.7937313
21
28.5246603
0
ARC
8
0
10
39.6433015
20
28.5265421
40
34.1504299
50
359.9968429
51
6.4184807
0
ARC
8
0
10
39.7377079
20
28.5361619
40
34.0555398
50
6.4201533
51
14.0043859
0
ARC
8
0
10
39.6996742
20
28.5253739
40
34.0950537
50
14.0065089
51
24.7492798
0
ARC
8
0
10
39.6639881
20
28.5110365
40
34.1334645
50
24.7460578
51
42.7694564
0
ARC
8
0
10
39.7216711
20
28.5615463
40
34.0568212
50
42.7729739
51
51.200583
0
ARC
8
0
10
39.6957596
20
28.5277031
40
34.0994329
50
51.2022835
51
57.7923388
0
ARC
8
0
10
39.6331571
20
28.4303162
40
34.2152006
50
57.7905583
51
60.0001677
0
ARC
8
0
10
39.649641
20
28.4613349
40
34.1800957
50
59.9980997
51
64.2852041
0
ARC
8
0
10
39.6936102
20
28.5520162
40
34.0793171
50
64.285656
51
69.1670428
0
ARC
8
0
10
39.7031464
20
28.5760567
40
34.0534569
50
69.1676534
51
74.9901299
0
ARC
8
0
10
39.6940673
20
28.5403571
40
34.0902897
50
74.9909305
51
82.5121995
0
ARC
8
0
10
39.6875283
20
28.4924161
40
34.1386741
50
82.5118039
51
90.0004094
0
ARC
8
0
10
39.6865659
20
28.5014953
40
34.129595
50
89.9988293
51
100.9029929
0
ARC
8
0
10
39.6758424
20
28.5606795
40
34.0694508
50
100.9041106
51
107.4128397
0
ARC
8
0
10
39.6719842
20
28.5743817
40
34.0552221
50
107.4135448
51
112.8439927
0
ARC
8
0
10
39.6928721
20
28.5255473
40
34.1083353
50
112.8444815
51
117.3093559
0
ARC
8
0
10
39.7375516
20
28.4384102
40
34.206259
50
117.3088895
51
120.0006912
0
ARC
8
0
10
39.708093
20
28.4858149
40
34.150476
50
119.9976564
51
126.4192372
0
ARC
8
0
10
39.652566
20
28.562756
40
34.0555961
50
126.4209143
51
134.0050768
0
ARC
8
0
10
39.6808954
20
28.5352454
40
34.0950649
50
134.0072018
51
144.749886
0
ARC
8
0
10
39.7111509
20
28.5115138
40
34.1334695
50
144.7466659
51
162.7699161
0
ARC
8
0
10
39.6385546
20
28.536214
40
34.0568149
50
162.7734289
51
171.2009678
0
ARC
8
0
10
39.6807588
20
28.5307032
40
34.0993652
50
171.2026649
51
177.7926747
0
ARC
8
0
10
39.7965839
20
28.5251675
40
34.2153176
50
177.7908822
51
180.0004638
0
ARC
8
0
10
39.7316675
20
28.5230058
40
34.1504011
50
179.9968378
51
186.4184292
0
ARC
8
0
10
39.6373181
20
28.513387
40
34.0555679
50
186.4200926
51
194.0042588
0
ARC
8
0
10
39.675338
20
28.5241727
40
34.0950677
50
194.0063838
51
204.7490654
0
ARC
8
0
10
39.7110238
20
28.5385094
40
34.1334778
50
204.7458429
51
222.7690888
0
ARC
8
0
10
39.6533208
20
28.4879796
40
34.0568063
50
222.7726035
51
231.2001449
0
ARC
8
0
10
39.679212
20
28.5217934
40
34.0993822
50
231.2018415
51
237.7918483
0
ARC
8
0
10
39.7419735
20
28.6194383
40
34.2154529
50
237.7900747
51
239.9996477
0
ARC
8
0
10
39.7249623
20
28.5885128
40
34.1801651
50
239.9984225
51
244.2854683
0
ARC
8
0
10
39.681003
20
28.4978746
40
34.0794297
50
244.2859374
51
249.1672531
0
ARC
8
0
10
39.6714393
20
28.4737876
40
34.0535163
50
249.1678792
51
254.9902821
0
ARC
8
0
10
39.6804961
20
28.509414
40
34.0902727
50
254.9910869
51
262.5122805
0
ARC
8
0
10
39.6870411
20
28.5573746
40
34.1386772
50
262.511879
51
270.0004072
0
ARC
8
0
10
39.6880051
20
28.5483127
40
34.1296153
50
269.9989254
51
280.9027875
0
ARC
8
0
10
39.6987227
20
28.4891716
40
34.0695145
50
280.9039009
51
287.4124411
0
ARC
8
0
10
39.7025932
20
28.4754294
40
34.0552437
50
287.4131463
51
292.8434416
0
ARC
8
0
10
39.681742
20
28.5241885
40
34.1082732
50
292.8439233
51
297.3086811
0
ARC
8
0
10
39.6367491
20
28.6119127
40
34.2068624
50
297.3082321
51
299.9999099
0
ARC
8
0
10
39.6668683
20
28.5642401
40
34.1505171
50
299.9961387
51
306.4177225
0
ARC
8
0
10
39.7223915
20
28.4873086
40
34.0556473
50
306.4193908
51
314.0035548
0
ARC
8
0
10
39.6940688
20
28.5148147
40
34.0951081
50
314.0056786
51
324.7483669
0
ARC
8
0
10
39.6638515
20
28.538522
40
34.1334675
50
324.7451449
51
342.7684238
0
ARC
8
0
10
39.7364874
20
28.5138054
40
34.0567699
50
342.7719399
51
351.1995025
0
ARC
8
0
10
39.6941947
20
28.5193281
40
34.0994097
50
351.2012043
51
357.7912158
0
ARC
8
0
10
39.578432
20
28.5248545
40
34.2152993
50
357.7894396
51
359.999026
0
LINE
8
DEFAULT_255_2_778
10
53.9500548
20
51.4689358
11
63.8722
21
41.5468017
0
LINE
8
DEFAULT_255_2_778
10
63.8722
20
41.5468017
11
26.0454826
21
3.7200903
0
LINE
8
DEFAULT_255_2_778
10
26.0454826
20
3.7200903
11
16.1233515
21
13.6422275
0
LINE
8
DEFAULT_255_2_778
10
16.1233515
20
13.6422275
11
53.9500548
21
51.4689358
0
ENDSEC
0
EOF