0
SECTION
2
HEADER
0
ENDSEC
0
SECTION
2
TABLES
0
TABLE
2
LTYPE
0
LTYPE
72
65
70
64
2
CONTINUOUS
3
______
73
0
40
0
0
ENDTAB
0
TABLE
2
LAYER
0
LAYER
2
DEFAULT_255_2_778
70
0
62
255
6
CONTINUOUS
0
ENDTAB
0
ENDSEC
0
SECTION
2
ENTITIES
0
LINE
8
0
10
73.7937313
20
28.5242728
11
73.7937313
21
28.5246603
0
ARC
8
0
10
39.6433653
20
28.5265439
40
34.1503661
50
359.9968399
51
6.4184897
0
ARC
8
0
10
39.737708
20
28.5361589
40
34.0555399
50
6.4201583
51
14.0043909
0
ARC
8
0
10
39.6996752
20
28.5253715
40
34.0950528
50
14.0065133
51
24.7492846
0
ARC
8
0
10
39.6639693
20
28.5110226
40
34.1334862
50
24.7460662
51
42.7694535
0
ARC
8
0
10
39.7216709
20
28.5615528
40
34.0568153
50
42.7729671
51
51.2005773
0
ARC
8
0
10
39.6957889
20
28.5277544
40
34.0993735
50
51.2022691
51
57.7923349
0
ARC
8
0
10
39.6331612
20
28.4303337
40
34.2151832
50
57.7905491
51
60.0001591
0
ARC
8
0
10
39.6495849
20
28.4612237
40
34.18022
50
59.9981114
51
64.2852002
0
ARC
8
0
10
39.6935726
20
28.5519235
40
34.0794169
50
64.2856668
51
69.1670393
0
ARC
8
0
10
39.7031464
20
28.5760566
40
34.0534569
50
69.1676534
51
74.9901299
0
ARC
8
0
10
39.6940672
20
28.540357
40
34.0902898
50
74.9909305
51
82.5121995
0
ARC
8
0
10
39.6875298
20
28.4924627
40
34.1386277
50
82.5117962
51
90.0004119
0
ARC
8
0
10
39.6865659
20
28.5014953
40
34.129595
50
89.9988293
51
100.9029929
0
ARC
8
0
10
39.6758424
20
28.5606796
40
34.0694508
50
100.9041106
51
107.4128397
0
ARC
8
0
10
39.6719842
20
28.5743817
40
34.0552221
50
107.4135448
51
112.8439927
0
ARC
8
0
10
39.6928722
20
28.5255472
40
34.1083355
50
112.8444815
51
117.3093559
0
ARC
8
0
10
39.7377088
20
28.4381304
40
34.2065797
50
117.3089084
51
120.0006849
0
ARC
8
0
10
39.7080971
20
28.485814
40
34.1504788
50
119.9976615
51
126.4192421
0
ARC
8
0
10
39.6525665
20
28.5627551
40
34.0555969
50
126.4209143
51
134.0050768
0
ARC
8
0
10
39.6808954
20
28.5352449
40
34.095065
50
134.0072017
51
144.749886
0
ARC
8
0
10
39.7111528
20
28.5115123
40
34.1334717
50
144.7466663
51
162.7699149
0
ARC
8
0
10
39.6385538
20
28.536214
40
34.056814
50
162.7734289
51
171.2009678
0
ARC
8
0
10
39.6807584
20
28.5307032
40
34.0993647
50
171.2026649
51
177.7926747
0
ARC
8
0
10
39.7965838
20
28.5251675
40
34.2153175
50
177.7908822
51
180.0004638
0
ARC
8
0
10
39.7316675
20
28.5230058
40
34.1504011
50
179.9968378
51
186.4184292
0
ARC
8
0
10
39.6373181
20
28.513387
40
34.0555679
50
186.4200926
51
194.0042588
0
ARC
8
0
10
39.675338
20
28.5241727
40
34.0950677
50
194.0063838
51
204.7490654
0
ARC
8
0
10
39.7110238
20
28.5385094
40
34.1334778
50
204.7458429
51
222.7690888
0
ARC
8
0
10
39.6533208
20
28.4879796
40
34.0568063
50
222.7726035
51
231.2001449
0
ARC
8
0
10
39.679212
20
28.5217934
40
34.0993822
50
231.2018415
51
237.7918483
0
ARC
8
0
10
39.7419735
20
28.6194383
40
34.2154529
50
237.7900747
51
239.9996477
0
ARC
8
0
10
39.7249643
20
28.5885217
40
34.1801738
50
239.998427
51
244.2854722
0
ARC
8
0
10
39.6810047
20
28.497882
40
34.079437
50
244.2859408
51
249.1672559
0
ARC
8
0
10
39.6714333
20
28.4737685
40
34.0534961
50
249.1678782
51
254.9902849
0
ARC
8
0
10
39.680497
20
28.5094143
40
34.090273
50
254.9910869
51
262.5122805
0
ARC
8
0
10
39.6870417
20
28.5573691
40
34.1386717
50
262.5118782
51
270.0004074
0
ARC
8
0
10
39.6880062
20
28.5483145
40
34.129617
50
269.998913
51
280.9027784
0
ARC
8
0
10
39.6987165
20
28.4891924
40
34.0695362
50
280.9038975
51
287.4124358
0
ARC
8
0
10
39.7025827
20
28.4754526
40
34.055269
50
287.4131467
51
292.8434398
0
ARC
8
0
10
39.6817069
20
28.5242629
40
34.1083555
50
292.8439264
51
297.3086752
0
ARC
8
0
10
39.6368171
20
28.6117847
40
34.2067175
50
297.3082282
51
299.9999185
0
ARC
8
0
10
39.6668834
20
28.5642267
40
34.150498
50
299.996128
51
306.4177168
0
ARC
8
0
10
39.7224094
20
28.4872936
40
34.0556252
50
306.4193831
51
314.0035528
0
ARC
8
0
10
39.6940835
20
28.5148025
40
34.0950903
50
314.0056771
51
324.7483711
0
ARC
8
0
10
39.663854
20
28.5385176
40
34.1334643
50
324.7451502
51
342.76843
0
ARC
8
0
10
39.7364532
20
28.5138093
40
34.0568044
50
342.771951
51
351.1995048
0
ARC
8
0
10
39.6942546
20
28.5193206
40
34.0993495
50
351.2012015
51
357.7912245
0
ARC
8
0
10
39.5784321
20
28.5248545
40
34.2152993
50
357.7894396
51
359.999026
0
LINE
8
DEFAULT_255_2_778
10
57.050568
20
48.3680348
11
22.3240065
21
8.6805359
0
LINE
8
DEFAULT_255_2_778
10
57.050568
20
8.6805359
11
22.3240065
21
48.3680348
0
ENDSEC
0
EOF