0
SECTION
2
HEADER
0
ENDSEC
0
SECTION
2
TABLES
0
TABLE
2
LTYPE
0
LTYPE
72
65
70
64
2
CONTINUOUS
3
______
73
0
40
0
0
ENDTAB
0
TABLE
2
LAYER
0
LAYER
2
DEFAULT_255_2_778
70
0
62
255
6
CONTINUOUS
0
ENDTAB
0
ENDSEC
0
SECTION
2
ENTITIES
0
ARC
8
0
10
28.5196436
20
39.0805262
40
1.2344918
50
145.5905021
51
180.0920179
0
ARC
8
0
10
28.5248977
20
39.0793014
40
1.2395202
50
95.50794
51
145.6810391
0
ARC
8
0
10
28.5252082
20
39.0633258
40
1.2554522
50
89.991807
51
95.4520655
0
ARC
8
0
10
35.9339315
20
39.2206377
40
1.0986318
50
43.6173762
51
88.2859106
0
ARC
8
0
10
35.5730943
20
38.8173234
40
1.6386523
50
8.4205866
51
45.1233221
0
ARC
8
0
10
35.8571585
20
38.87077
40
1.3498709
50
0.0804542
51
7.9421151
0
ARC
8
0
10
44.1150621
20
39.080474
40
1.9495724
50
173.3456858
51
180.0567332
0
ARC
8
0
10
43.4268872
20
39.1992075
40
1.2528569
50
143.8937751
51
175.0924113
0
ARC
8
0
10
43.0626331
20
39.4249293
40
0.8261831
50
135.0401644
51
141.6544009
0
ARC
8
0
10
43.2221568
20
39.2033066
40
1.0965505
50
98.595904
51
132.7353
0
ARC
8
0
10
43.3785858
20
38.5791137
40
1.7381965
50
96.5500571
51
100.6194839
0
ARC
8
0
10
43.4059179
20
38.3264008
40
1.9923783
50
89.9343788
51
96.5019307
0
ARC
8
0
10
50.8496203
20
39.0278745
40
1.2909058
50
90.0000081
51
90.1104843
0
ARC
8
0
10
50.8496154
20
39.0785678
40
1.2402126
50
45.0566276
51
89.9997825
0
ARC
8
0
10
50.8496004
20
39.0785447
40
1.2402397
50
359.9999487
51
45.056891
0
ARC
8
0
10
50.8496069
20
25.4359619
40
1.2402333
50
314.9429864
51
0.0001783
0
ARC
8
0
10
50.8496123
20
25.4359497
40
1.2402207
50
270.0000143
51
314.9432105
0
ARC
8
0
10
50.8496127
20
25.4787085
40
1.2829795
50
269.8891751
51
269.9999985
0
ARC
8
0
10
28.5209218
20
25.4302233
40
1.2344934
50
235.5905732
51
270.0920359
0
ARC
8
0
10
28.5221457
20
25.4354743
40
1.2395187
50
185.5078933
51
235.6810623
0
ARC
8
0
10
28.5381301
20
25.4357863
40
1.2554598
50
179.9918069
51
185.452047
0
LINE
8
DEFAULT_255_2_778
10
28.5253877
20
40.3187779
11
35.9667938
21
40.3187779
0
LINE
8
DEFAULT_255_2_778
10
37.2070281
20
38.8726655
11
37.2070281
21
32.8773718
0
LINE
8
DEFAULT_255_2_778
10
37.2070281
20
32.8773718
11
42.1679655
21
32.8773718
0
LINE
8
DEFAULT_255_2_778
10
42.1679655
20
32.8773718
11
42.1654907
21
39.0785436
0
LINE
8
DEFAULT_255_2_778
10
43.4081998
20
40.3187779
11
50.847131
21
40.3187779
0
LINE
8
DEFAULT_255_2_778
10
52.0898402
20
39.0785436
11
52.0898402
21
25.4359658
0
LINE
8
DEFAULT_255_2_778
10
50.847131
20
24.1957315
11
28.5229048
21
24.1957315
0
LINE
8
DEFAULT_255_2_778
10
27.2826705
20
25.4359658
11
27.2826705
21
39.0785436
0
LINE
8
DEFAULT_255_2_778
10
27.2826705
20
39.0785436
11
27.2851534
21
39.0785436
0
ARC
8
0
10
32.2452367
20
5.5955201
40
3.7215606
50
359.9491366
51
16.4493055
0
ARC
8
0
10
32.2451418
20
5.5896955
40
3.7233052
50
16.5348551
51
49.4893205
0
ARC
8
0
10
32.2497099
20
5.6030698
40
3.7101733
50
49.408789
51
76.0318403
0
ARC
8
0
10
32.2487066
20
5.5839009
40
3.7290194
50
76.0879749
51
90.0401598
0
ARC
8
0
10
32.2427891
20
5.5913602
40
3.7215606
50
89.9491366
51
106.4493055
0
ARC
8
0
10
32.2486137
20
5.5912653
40
3.7233052
50
106.5348551
51
139.4893205
0
ARC
8
0
10
32.2352394
20
5.5958334
40
3.7101733
50
139.408789
51
166.0318403
0
ARC
8
0
10
32.2544083
20
5.5948301
40
3.7290194
50
166.0879749
51
180.0401598
0
ARC
8
0
10
32.2469575
20
5.5889124
40
3.7215692
50
179.9491332
51
196.4492864
0
ARC
8
0
10
32.2470393
20
5.5947328
40
3.7233
50
196.5348321
51
229.4893439
0
ARC
8
0
10
32.2424748
20
5.5813641
40
3.7101746
50
229.4088272
51
256.0318614
0
ARC
8
0
10
32.2434767
20
5.6005185
40
3.7290061
50
256.0879628
51
270.0401973
0
ARC
8
0
10
32.2493973
20
5.593082
40
3.7215701
50
269.9491262
51
286.4492527
0
ARC
8
0
10
32.2435761
20
5.5931638
40
3.7233008
50
286.5348088
51
319.4893028
0
ARC
8
0
10
32.256949
20
5.5885958
40
3.7101701
50
319.408784
51
346.0318633
0
ARC
8
0
10
32.2377703
20
5.5896023
40
3.7290265
50
346.0879866
51
0.0401652
0
LINE
8
DEFAULT_255_2_778
10
27.2851555
20
29.1566688
11
52.0898423
21
29.1566688
0
LINE
8
DEFAULT_255_2_778
10
52.0898423
20
32.8773719
11
27.2851555
21
32.8773719
0
ARC
8
0
10
26.0761607
20
68.7698884
40
1.3145119
50
89.8480265
51
118.7006743
0
ARC
8
0
10
26.0148958
20
68.855288
40
1.2102499
50
118.0981834
51
179.5285743
0
ARC
8
0
10
25.9952974
20
-1.8663897
40
1.1906114
50
180.067847
51
226.5677963
0
ARC
8
0
10
26.07715
20
-1.7838178
40
1.3068502
50
226.4506214
51
270.1094875
0
ARC
8
0
10
53.300039
20
-1.7707237
40
1.301355
50
269.7938417
51
313.6463339
0
ARC
8
0
10
53.3796393
20
-1.8477678
40
1.1906726
50
313.4334622
51
359.9312717
0
ARC
8
0
10
53.3492242
20
68.8689918
40
1.2211771
50
0.6971797
51
70.195385
0
ARC
8
0
10
53.2951721
20
68.7740798
40
1.3289206
50
69.3892155
51
89.9920464
0
LINE
8
DEFAULT_255_2_778
10
24.8046868
20
68.8652458
11
24.8046868
21
-1.8677996
0
LINE
8
DEFAULT_255_2_778
10
26.0796473
20
-3.0906658
11
53.2953565
21
-3.0720703
0
LINE
8
DEFAULT_255_2_778
10
54.570311
20
-1.849196
11
54.570311
21
68.8838508
0
LINE
8
DEFAULT_255_2_778
10
53.2953565
20
70.1030005
11
26.0796473
21
70.0843957
0
LINE
8
DEFAULT_255_2_778
10
24.8046868
20
15.5140878
11
54.570311
21
15.5140878
0
LINE
8
DEFAULT_255_2_778
10
24.8046868
20
51.4808837
11
54.570311
21
51.4808837
0
LINE
8
DEFAULT_255_2_778
10
30.6957999
20
7.4525646
11
33.7963858
21
4.0419201
0
ARC
8
0
10
47.1280235
20
5.5955069
40
3.7215794
50
359.9491366
51
16.4492208
0
ARC
8
0
10
47.127953
20
5.5896891
40
3.7232985
50
16.5347767
51
49.4892802
0
ARC
8
0
10
47.1325224
20
5.6030629
40
3.7101661
50
49.4087703
51
76.0318833
0
ARC
8
0
10
47.1315126
20
5.583871
40
3.7290361
50
76.0880053
51
90.0401682
0
ARC
8
0
10
47.1255938
20
5.5913327
40
3.721575
50
89.9491252
51
106.449275
0
ARC
8
0
10
47.1314111
20
5.5912605
40
3.7232957
50
106.5348156
51
139.4893651
0
ARC
8
0
10
47.1180445
20
5.5958242
40
3.7101724
50
139.4088593
51
166.0319009
0
ARC
8
0
10
47.1372137
20
5.5948185
40
3.7290194
50
166.0880004
51
180.0401848
0
ARC
8
0
10
47.1297817
20
5.5888991
40
3.7215879
50
179.9491332
51
196.4492018
0
ARC
8
0
10
47.1298391
20
5.5947128
40
3.7232932
50
196.5347537
51
229.4893037
0
ARC
8
0
10
47.1252732
20
5.5813446
40
3.7101674
50
229.4088085
51
256.0319045
0
ARC
8
0
10
47.1262816
20
5.6005219
40
3.7290228
50
256.0879933
51
270.0402057
0
ARC
8
0
10
47.1322035
20
5.5930831
40
3.7215844
50
269.9491148
51
286.4492222
0
ARC
8
0
10
47.1263897
20
5.5931421
40
3.7232913
50
286.5347693
51
319.4893474
0
ARC
8
0
10
47.1397549
20
5.5885786
40
3.7101692
50
319.4088543
51
346.0319239
0
ARC
8
0
10
47.1205759
20
5.5895874
40
3.7290265
50
346.0880122
51
0.0401902
0
LINE
8
DEFAULT_255_2_778
10
33.7963792
20
7.4525546
11
30.3857347
21
4.0419102
0
LINE
8
DEFAULT_255_2_778
10
45.578612
20
7.4525712
11
48.6791979
21
4.0419267
0
ARC
8
0
10
32.2452209
20
61.4060491
40
3.7215665
50
359.9491334
51
16.4492929
0
ARC
8
0
10
32.2451357
20
61.4002276
40
3.723301
50
16.5348393
51
49.4893421
0
ARC
8
0
10
32.249702
20
61.4135999
40
3.7101718
50
49.4088105
51
76.0318667
0
ARC
8
0
10
32.2486991
20
61.3944429
40
3.7290061
50
76.0879627
51
90.0401973
0
ARC
8
0
10
32.2427798
20
61.4018797
40
3.7215699
50
89.9491471
51
106.4492738
0
ARC
8
0
10
32.2486005
20
61.4017973
40
3.7233015
50
106.5348193
51
139.4893101
0
ARC
8
0
10
32.2352277
20
61.4063646
40
3.7101712
50
139.4087858
51
166.0318559
0
ARC
8
0
10
32.254405
20
61.4053591
40
3.729026
50
166.0879871
51
180.0401627
0
ARC
8
0
10
32.246945
20
61.3994412
40
3.7215665
50
179.9491334
51
196.4492929
0
ARC
8
0
10
32.2470302
20
61.4052627
40
3.723301
50
196.5348393
51
229.4893421
0
ARC
8
0
10
32.2424639
20
61.3918904
40
3.7101718
50
229.4088105
51
256.0318667
0
ARC
8
0
10
32.2434668
20
61.4110474
40
3.7290061
50
256.0879627
51
270.0401973
0
ARC
8
0
10
32.249386
20
61.4036106
40
3.7215699
50
269.9491471
51
286.4492738
0
ARC
8
0
10
32.2435654
20
61.403693
40
3.7233015
50
286.5348193
51
319.4893101
0
ARC
8
0
10
32.2569382
20
61.3991257
40
3.7101712
50
319.4087858
51
346.0318559
0
ARC
8
0
10
32.2377609
20
61.4001312
40
3.729026
50
346.0879871
51
0.0401627
0
LINE
8
DEFAULT_255_2_778
10
48.6791879
20
7.4525513
11
45.2685435
21
4.0419069
0
LINE
8
DEFAULT_255_2_778
10
30.6957999
20
63.2631165
11
33.7963858
21
59.8524721
0
ARC
8
0
10
47.1280176
20
61.4060657
40
3.7215852
50
359.9491335
51
16.4492083
0
ARC
8
0
10
47.1279568
20
61.4002509
40
3.7232942
50
16.5347609
51
49.4893019
0
ARC
8
0
10
47.1325244
20
61.4136226
40
3.7101646
50
49.4087918
51
76.0319097
0
ARC
8
0
10
47.1315151
20
61.3944428
40
3.7290228
50
76.0879932
51
90.0402057
0
ARC
8
0
10
47.1255945
20
61.4018819
40
3.7215843
50
89.9491357
51
106.4492433
0
ARC
8
0
10
47.1314078
20
61.4018222
40
3.7232919
50
106.5347799
51
139.4893548
0
ARC
8
0
10
47.1180427
20
61.4063852
40
3.7101703
50
139.4088561
51
166.0319164
0
ARC
8
0
10
47.1372202
20
61.4053773
40
3.7290259
50
166.0880127
51
180.0401876
0
ARC
8
0
10
47.1297791
20
61.3994577
40
3.7215852
50
179.9491335
51
196.4492083
0
ARC
8
0
10
47.1298399
20
61.4052724
40
3.7232942
50
196.5347609
51
229.4893019
0
ARC
8
0
10
47.1252722
20
61.3919007
40
3.7101646
50
229.4087918
51
256.0319097
0
ARC
8
0
10
47.1262816
20
61.4110805
40
3.7290228
50
256.0879932
51
270.0402057
0
ARC
8
0
10
47.1322022
20
61.4036415
40
3.7215843
50
269.9491357
51
286.4492433
0
ARC
8
0
10
47.1263888
20
61.4037011
40
3.7232919
50
286.5347799
51
319.4893548
0
ARC
8
0
10
47.1397539
20
61.3991382
40
3.7101703
50
319.4088561
51
346.0319164
0
ARC
8
0
10
47.1205764
20
61.4001461
40
3.7290259
50
346.0880127
51
0.0401876
0
LINE
8
DEFAULT_255_2_778
10
33.7963792
20
63.2631132
11
30.3857347
21
59.8524688
0
LINE
8
DEFAULT_255_2_778
10
39.6874923
20
70.0844021
11
39.6874923
21
-3.089424
0
LINE
8
DEFAULT_255_2_778
10
45.578612
20
63.2631165
11
48.6791979
21
59.8524721
0
LINE
8
DEFAULT_255_2_778
10
48.6792078
20
63.2631165
11
45.2685634
21
59.8524721
0
ENDSEC
0
EOF