0
SECTION
2
HEADER
0
ENDSEC
0
SECTION
2
TABLES
0
TABLE
2
LTYPE
0
LTYPE
72
65
70
64
2
CONTINUOUS
3
______
73
0
40
0
0
ENDTAB
0
TABLE
2
LAYER
0
LAYER
2
DEFAULT_255_2_778
70
0
62
255
6
CONTINUOUS
0
ENDTAB
0
ENDSEC
0
SECTION
2
ENTITIES
0
ARC
8
0
10
61.0987432
20
72.3335771
40
1.5130768
50
44.0987829
51
89.8529067
0
ARC
8
0
10
61.0352761
20
72.2791214
40
1.5965586
50
359.9508236
51
43.9172024
0
ARC
8
0
10
60.9936823
20
-0.243539
40
1.6381589
50
0.0024421
51
0.1675164
0
ARC
8
0
10
61.0429508
20
-0.2432111
40
1.5888905
50
315.9710859
51
359.9906951
0
ARC
8
0
10
61.0987559
20
-0.2945967
40
1.5130543
50
270.1466157
51
315.901407
0
ARC
8
0
10
18.2762423
20
-0.2945839
40
1.5130669
50
224.0987962
51
269.8535989
0
ARC
8
0
10
18.3397559
20
-0.2401131
40
1.596593
50
179.9510657
51
223.9164498
0
ARC
8
0
10
18.3787637
20
72.2837783
40
1.6356072
50
180.002444
51
180.1676443
0
ARC
8
0
10
18.3320428
20
72.2834555
40
1.5888863
50
135.9712854
51
179.990878
0
ARC
8
0
10
18.27626
20
72.3348023
40
1.513093
50
90.1470663
51
135.901149
0
LINE
8
DEFAULT_255_2_778
10
62.6318342
20
72.2777511
11
62.6318342
21
-0.2387495
0
LINE
8
DEFAULT_255_2_778
10
61.1026277
20
-1.8076459
11
18.2723762
21
-1.8076459
0
LINE
8
DEFAULT_255_2_778
10
16.7431636
20
-0.2387495
11
16.7431636
21
72.2789926
0
LINE
8
DEFAULT_255_2_778
10
18.2723762
20
73.8478903
11
61.1026277
21
73.8478903
0
ARC
8
0
10
29.1518699
20
48.4337441
40
2.48686
50
158.0709074
51
180.2738726
0
ARC
8
0
10
28.4595107
20
48.7165976
40
1.7389652
50
136.9403418
51
158.1967841
0
ARC
8
0
10
28.05516
20
49.101059
40
1.1810443
50
94.5222965
51
137.1746499
0
ARC
8
0
10
28.0598315
20
49.015998
40
1.2662105
50
89.9787121
51
94.4295421
0
ARC
8
0
10
50.8491125
20
48.9240959
40
1.3581127
50
85.3503763
51
89.9790979
0
ARC
8
0
10
50.7951976
20
48.5787797
40
1.7068571
50
59.415496
51
84.4861221
0
ARC
8
0
10
50.5797062
20
48.1571864
40
2.1796349
50
20.2650506
51
60.1777889
0
ARC
8
0
10
51.1771722
20
48.4055977
40
1.5333331
50
2.7408494
51
19.2899403
0
ARC
8
0
10
51.3559383
20
48.421732
40
1.3540213
50
0.0052888
51
2.4206263
0
ARC
8
0
10
48.8855061
20
32.2987512
40
3.8244534
50
359.1458166
51
0.0008906
0
ARC
8
0
10
49.5817584
20
32.2604993
40
3.1278324
50
344.5781958
51
359.6563115
0
ARC
8
0
10
50.8375003
20
31.914967
40
1.8254197
50
327.7044137
51
344.5518447
0
ARC
8
0
10
51.4924615
20
31.4778788
40
1.038432
50
280.3394246
51
328.7823032
0
ARC
8
0
10
51.4731798
20
31.6318112
40
1.1933571
50
269.8341332
51
279.9236812
0
ARC
8
0
10
28.2033073
20
32.1735077
40
1.7350903
50
253.1984517
51
270.3970544
0
ARC
8
0
10
28.0990637
20
31.8332524
40
1.3792282
50
204.2564721
51
253.2582833
0
ARC
8
0
10
28.4875575
20
32.0253823
40
1.812422
50
190.4425294
51
204.7485668
0
ARC
8
0
10
29.0552442
20
32.1330005
40
2.3902138
50
179.8309316
51
190.5130747
0
ARC
8
0
10
29.5585654
20
32.1437803
40
2.893527
50
179.9999806
51
180.0737955
0
LINE
8
DEFAULT_255_2_778
10
60.1513655
20
-1.8076338
11
60.1513655
21
3.1533036
0
LINE
8
DEFAULT_255_2_778
10
60.1513655
20
73.846661
11
60.1513655
21
68.8857236
0
LINE
8
DEFAULT_255_2_778
10
28.060302
20
50.2822085
11
36.586913
21
50.2822085
0
LINE
8
DEFAULT_255_2_778
10
36.586913
20
50.2822085
11
36.586913
21
44.0810368
0
LINE
8
DEFAULT_255_2_778
10
36.586913
20
44.0810368
11
42.7880847
21
44.0810368
0
LINE
8
DEFAULT_255_2_778
10
42.7880847
20
44.0810368
11
42.7880847
21
50.2822085
0
LINE
8
DEFAULT_255_2_778
10
42.7880847
20
50.2822085
11
50.849608
21
50.2822085
0
LINE
8
DEFAULT_255_2_778
10
52.7099595
20
48.421857
11
52.7099595
21
32.2988106
0
LINE
8
DEFAULT_255_2_778
10
51.4697251
20
30.4384591
11
42.7880847
21
30.4384591
0
LINE
8
DEFAULT_255_2_778
10
42.7880847
20
30.4384591
11
42.7880847
21
36.6396308
0
LINE
8
DEFAULT_255_2_778
10
42.7880847
20
36.6396308
11
36.586913
21
36.6396308
0
LINE
8
DEFAULT_255_2_778
10
36.586913
20
36.6396308
11
36.586913
21
30.4384591
0
LINE
8
DEFAULT_255_2_778
10
36.586913
20
30.4384591
11
28.2153312
21
30.4384591
0
LINE
8
DEFAULT_255_2_778
10
26.6650383
20
32.1437813
11
26.6650383
21
48.421857
0
LINE
8
DEFAULT_255_2_778
10
26.6650383
20
48.421857
11
26.6650383
21
48.421857
0
ARC
8
0
10
28.3139044
20
72.3770889
40
1.6489982
50
179.9996595
51
180.7364112
0
ARC
8
0
10
28.3144182
20
72.3770742
40
1.649512
50
141.2254115
51
179.9991498
0
ARC
8
0
10
27.9872069
20
72.6234021
40
1.2402149
50
114.6215885
51
140.6304793
0
ARC
8
0
10
27.9035275
20
72.793222
40
1.0509858
50
90.1217279
51
114.3315421
0
ARC
8
0
10
27.9012933
20
72.8138741
40
1.0303313
50
89.5716
51
89.9999287
0
ARC
8
0
10
27.8917963
20
72.7246918
40
1.1196168
50
46.2967357
51
89.1197288
0
ARC
8
0
10
27.7569764
20
72.5565525
40
1.3344508
50
39.5560061
51
47.0999356
0
ARC
8
0
10
27.540692
20
72.3978924
40
1.6023203
50
9.5159957
51
39.0049843
0
ARC
8
0
10
27.358557
20
72.3529406
40
1.7894371
50
359.9754659
51
9.9713771
0
LINE
8
DEFAULT_255_2_778
10
26.6650424
20
68.8857187
11
26.6650424
21
72.3558952
0
LINE
8
DEFAULT_255_2_778
10
29.1479939
20
72.3521744
11
29.1479939
21
68.8857187
0
ARC
8
0
10
22.9434733
20
62.6878559
40
3.7215665
50
359.9491334
51
16.4492929
0
ARC
8
0
10
22.943388
20
62.6820344
40
3.723301
50
16.5348393
51
49.4893421
0
ARC
8
0
10
22.9479543
20
62.6954067
40
3.7101718
50
49.4088105
51
76.0318667
0
ARC
8
0
10
22.9469515
20
62.6762497
40
3.7290061
50
76.0879627
51
90.0401973
0
ARC
8
0
10
22.9410322
20
62.6836865
40
3.7215699
50
89.9491471
51
106.4492738
0
ARC
8
0
10
22.9468529
20
62.6836041
40
3.7233015
50
106.5348193
51
139.4893101
0
ARC
8
0
10
22.9334801
20
62.6881714
40
3.7101712
50
139.4087858
51
166.0318559
0
ARC
8
0
10
22.9526573
20
62.6871659
40
3.729026
50
166.0879871
51
180.0401627
0
ARC
8
0
10
22.9451973
20
62.681248
40
3.7215665
50
179.9491334
51
196.4492929
0
ARC
8
0
10
22.9452826
20
62.6870695
40
3.723301
50
196.5348393
51
229.4893421
0
ARC
8
0
10
22.9407162
20
62.6736972
40
3.7101718
50
229.4088105
51
256.0318667
0
ARC
8
0
10
22.9417191
20
62.6928542
40
3.7290061
50
256.0879627
51
270.0401973
0
ARC
8
0
10
22.9476384
20
62.6854174
40
3.7215699
50
269.9491471
51
286.4492738
0
ARC
8
0
10
22.9418177
20
62.6854998
40
3.7233015
50
286.5348193
51
319.4893101
0
ARC
8
0
10
22.9551905
20
62.6809325
40
3.7101712
50
319.4087858
51
346.0318559
0
ARC
8
0
10
22.9360133
20
62.681938
40
3.729026
50
346.0879871
51
0.0401627
0
LINE
8
DEFAULT_255_2_778
10
19.2236323
20
73.846661
11
19.2236323
21
68.8857236
0
LINE
8
DEFAULT_255_2_778
10
21.704101
20
19.27635
11
56.4306625
21
19.27635
0
LINE
8
DEFAULT_255_2_778
10
56.4306625
20
19.27635
11
56.4306625
21
26.7177561
0
LINE
8
DEFAULT_255_2_778
10
56.4306625
20
26.7177561
11
21.704101
21
26.7177561
0
LINE
8
DEFAULT_255_2_778
10
21.704101
20
26.7177561
11
21.704101
21
19.27635
0
LINE
8
DEFAULT_255_2_778
10
16.7431636
20
3.1533036
11
62.6318342
21
3.1533036
0
LINE
8
DEFAULT_255_2_778
10
62.6318342
20
56.5602752
11
16.7431636
21
56.5602752
0
LINE
8
DEFAULT_255_2_778
10
62.6318342
20
68.8857236
11
16.7431636
21
68.8857236
0
LINE
8
DEFAULT_255_2_778
10
62.6318342
20
15.555647
11
16.7431636
21
15.555647
0
LINE
8
DEFAULT_255_2_778
10
19.2236323
20
-1.8076338
11
19.2236323
21
3.1533036
0
LINE
8
DEFAULT_255_2_778
10
21.3940424
20
64.5449035
11
24.4946282
21
61.134259
0
ARC
8
0
10
56.4297751
20
62.6878427
40
3.7215852
50
359.9491335
51
16.4492083
0
ARC
8
0
10
56.4297143
20
62.682028
40
3.7232942
50
16.5347609
51
49.4893019
0
ARC
8
0
10
56.434282
20
62.6953997
40
3.7101646
50
49.4087918
51
76.0319097
0
ARC
8
0
10
56.4332726
20
62.6762199
40
3.7290228
50
76.0879932
51
90.0402057
0
ARC
8
0
10
56.427352
20
62.6836589
40
3.7215843
50
89.9491357
51
106.4492433
0
ARC
8
0
10
56.4331654
20
62.6835993
40
3.7232919
50
106.5347799
51
139.4893548
0
ARC
8
0
10
56.4198003
20
62.6881622
40
3.7101703
50
139.4088561
51
166.0319164
0
ARC
8
0
10
56.4389778
20
62.6871543
40
3.7290259
50
166.0880127
51
180.0401876
0
ARC
8
0
10
56.4315366
20
62.6812347
40
3.7215852
50
179.9491335
51
196.4492083
0
ARC
8
0
10
56.4315974
20
62.6870495
40
3.7232942
50
196.5347609
51
229.4893019
0
ARC
8
0
10
56.4270298
20
62.6736778
40
3.7101646
50
229.4087918
51
256.0319097
0
ARC
8
0
10
56.4280391
20
62.6928576
40
3.7290228
50
256.0879932
51
270.0402057
0
ARC
8
0
10
56.4339597
20
62.6854185
40
3.7215843
50
269.9491357
51
286.4492433
0
ARC
8
0
10
56.4281464
20
62.6854782
40
3.7232919
50
286.5347799
51
319.4893548
0
ARC
8
0
10
56.4415115
20
62.6809152
40
3.7101703
50
319.4088561
51
346.0319164
0
ARC
8
0
10
56.422334
20
62.6819231
40
3.7290259
50
346.0880127
51
0.0401876
0
LINE
8
DEFAULT_255_2_778
10
24.4946216
20
64.5448902
11
21.0839772
21
61.1342458
0
LINE
8
DEFAULT_255_2_778
10
54.8803563
20
64.5449068
11
57.9809422
21
61.1342623
0
ARC
8
0
10
34.1055857
20
62.6878427
40
3.7215665
50
359.9491334
51
16.4492929
0
ARC
8
0
10
34.1055004
20
62.6820211
40
3.723301
50
16.5348393
51
49.4893421
0
ARC
8
0
10
34.1100667
20
62.6953934
40
3.7101718
50
49.4088105
51
76.0318667
0
ARC
8
0
10
34.1090638
20
62.6762365
40
3.7290061
50
76.0879627
51
90.0401973
0
ARC
8
0
10
34.1031446
20
62.6836733
40
3.7215699
50
89.9491471
51
106.4492738
0
ARC
8
0
10
34.1089652
20
62.6835908
40
3.7233015
50
106.5348193
51
139.4893101
0
ARC
8
0
10
34.0955925
20
62.6881582
40
3.7101712
50
139.4087858
51
166.0318559
0
ARC
8
0
10
34.1147697
20
62.6871526
40
3.729026
50
166.0879871
51
180.0401627
0
ARC
8
0
10
34.1073097
20
62.6812347
40
3.7215665
50
179.9491334
51
196.4492929
0
ARC
8
0
10
34.1073949
20
62.6870563
40
3.723301
50
196.5348393
51
229.4893421
0
ARC
8
0
10
34.1028286
20
62.673684
40
3.7101718
50
229.4088105
51
256.0318667
0
ARC
8
0
10
34.1038315
20
62.6928409
40
3.7290061
50
256.0879627
51
270.0401973
0
ARC
8
0
10
34.1097508
20
62.6854042
40
3.7215699
50
269.9491471
51
286.4492738
0
ARC
8
0
10
34.1039301
20
62.6854866
40
3.7233015
50
286.5348193
51
319.4893101
0
ARC
8
0
10
34.1173029
20
62.6809192
40
3.7101712
50
319.4087858
51
346.0318559
0
ARC
8
0
10
34.0981256
20
62.6819248
40
3.729026
50
346.0879871
51
0.0401627
0
LINE
8
DEFAULT_255_2_778
10
57.9809587
20
64.5448902
11
54.5703143
21
61.1342458
0
LINE
8
DEFAULT_255_2_778
10
32.5561382
20
64.5449068
11
35.6567241
21
61.1342623
0
ARC
8
0
10
45.2676661
20
62.6878427
40
3.7215852
50
359.9491335
51
16.4492083
0
ARC
8
0
10
45.2676052
20
62.682028
40
3.7232942
50
16.5347609
51
49.4893019
0
ARC
8
0
10
45.2721729
20
62.6953997
40
3.7101646
50
49.4087918
51
76.0319097
0
ARC
8
0
10
45.2711635
20
62.6762199
40
3.7290228
50
76.0879932
51
90.0402057
0
ARC
8
0
10
45.265243
20
62.6836589
40
3.7215843
50
89.9491357
51
106.4492433
0
ARC
8
0
10
45.2710563
20
62.6835993
40
3.7232919
50
106.5347799
51
139.4893548
0
ARC
8
0
10
45.2576912
20
62.6881622
40
3.7101703
50
139.4088561
51
166.0319164
0
ARC
8
0
10
45.2768687
20
62.6871543
40
3.7290259
50
166.0880127
51
180.0401876
0
ARC
8
0
10
45.2694276
20
62.6812347
40
3.7215852
50
179.9491335
51
196.4492083
0
ARC
8
0
10
45.2694884
20
62.6870495
40
3.7232942
50
196.5347609
51
229.4893019
0
ARC
8
0
10
45.2649207
20
62.6736778
40
3.7101646
50
229.4087918
51
256.0319097
0
ARC
8
0
10
45.2659301
20
62.6928576
40
3.7290228
50
256.0879932
51
270.0402057
0
ARC
8
0
10
45.2718506
20
62.6854185
40
3.7215843
50
269.9491357
51
286.4492433
0
ARC
8
0
10
45.2660373
20
62.6854782
40
3.7232919
50
286.5347799
51
319.4893548
0
ARC
8
0
10
45.2794024
20
62.6809152
40
3.7101703
50
319.4088561
51
346.0319164
0
ARC
8
0
10
45.2602249
20
62.6819231
40
3.7290259
50
346.0880127
51
0.0401876
0
LINE
8
DEFAULT_255_2_778
10
35.6567307
20
64.5448902
11
32.2460862
21
61.1342458
0
LINE
8
DEFAULT_255_2_778
10
43.7182473
20
64.5449068
11
46.8188331
21
61.1342623
0
LINE
8
DEFAULT_255_2_778
10
46.818843
20
64.5449068
11
43.4081986
21
61.1342623
0
ARC
8
0
10
39.4796185
20
72.3770964
40
1.6525991
50
180.0001997
51
180.7350676
0
ARC
8
0
10
39.4765417
20
72.3770704
40
1.6495224
50
141.2255379
51
179.9992983
0
ARC
8
0
10
39.1493108
20
72.6234146
40
1.2401998
50
114.6214587
51
140.6306573
0
ARC
8
0
10
39.0656421
20
72.7932129
40
1.0509949
50
90.1217055
51
114.3314355
0
ARC
8
0
10
39.0634082
20
72.8137875
40
1.0304179
50
89.571625
51
89.9999204
0
ARC
8
0
10
39.0539082
20
72.724674
40
1.1196347
50
46.2970953
51
89.1195804
0
ARC
8
0
10
38.919169
20
72.5566233
40
1.3343489
50
39.5556708
51
47.1001732
0
ARC
8
0
10
38.7027385
20
72.397889
40
1.6023789
50
9.5157681
51
39.003446
0
ARC
8
0
10
38.52061
20
72.3529384
40
1.7894892
50
359.9755391
51
9.9711572
0
LINE
8
DEFAULT_255_2_778
10
37.8271554
20
68.8857187
11
37.8271554
21
72.3558952
0
LINE
8
DEFAULT_255_2_778
10
40.3100989
20
72.3521744
11
40.3100989
21
68.8857187
0
ARC
8
0
10
51.8796618
20
72.3770816
40
1.6502991
50
180.0002051
51
180.7355792
0
ARC
8
0
10
51.878858
20
72.3770806
40
1.6494951
50
141.2252238
51
180.000169
0
ARC
8
0
10
51.5516521
20
72.6234159
40
1.2401974
50
114.6213713
51
140.6306438
0
ARC
8
0
10
51.4679885
20
72.7932017
40
1.0510061
50
90.1216569
51
114.331304
0
ARC
8
0
10
51.4657554
20
72.813775
40
1.0304303
50
89.571625
51
89.9999203
0
ARC
8
0
10
51.4562529
20
72.7246776
40
1.1196311
50
46.2970181
51
89.1194434
0
ARC
8
0
10
51.3215124
20
72.5566234
40
1.3343488
50
39.5556707
51
47.100173
0
ARC
8
0
10
51.1050818
20
72.397889
40
1.6023789
50
9.5157681
51
39.003446
0
ARC
8
0
10
50.9229533
20
72.3529384
40
1.7894892
50
359.9755391
51
9.9711572
0
LINE
8
DEFAULT_255_2_778
10
50.2294987
20
68.8857187
11
50.2294987
21
72.3558952
0
LINE
8
DEFAULT_255_2_778
10
52.7124422
20
72.3521744
11
52.7124422
21
68.8857187
0
ARC
8
0
10
51.0281896
20
-0.3619133
40
1.6817749
50
324.6149644
51
0.2666468
0
ARC
8
0
10
51.2721653
20
-0.5099986
40
1.3972662
50
320.2573099
51
323.7723611
0
ARC
8
0
10
51.3799569
20
-0.6137083
40
1.2481238
50
294.6554231
51
320.754438
0
ARC
8
0
10
51.4637368
20
-0.7834447
40
1.0589256
50
270.1223273
51
294.3667736
0
ARC
8
0
10
51.4778559
20
-0.7418868
40
1.1005449
50
227.0370526
51
269.3826302
0
ARC
8
0
10
51.6303076
20
-0.5464153
40
1.3476634
50
219.4146454
51
227.9577722
0
ARC
8
0
10
51.8962119
20
-0.3707124
40
1.6649809
50
185.8231806
51
218.2759684
0
ARC
8
0
10
51.9195426
20
-0.3529245
40
1.6900655
50
180.0393946
51
186.3428647
0
LINE
8
DEFAULT_255_2_778
10
52.7099462
20
3.1532978
11
52.7099462
21
-0.3540865
0
LINE
8
DEFAULT_255_2_778
10
50.2294776
20
-0.3540865
11
50.2294776
21
3.1408954
0
ARC
8
0
10
38.6258461
20
-0.3619133
40
1.6817749
50
324.6149644
51
0.2666468
0
ARC
8
0
10
38.8698219
20
-0.5099986
40
1.3972662
50
320.2573099
51
323.7723611
0
ARC
8
0
10
38.9776189
20
-0.6137131
40
1.2481166
50
294.6552359
51
320.7544517
0
ARC
8
0
10
39.0613874
20
-0.7834228
40
1.0589474
50
270.1222139
51
294.3665175
0
ARC
8
0
10
39.0755098
20
-0.741907
40
1.1005247
50
227.0366345
51
269.3823404
0
ARC
8
0
10
39.2280279
20
-0.5463521
40
1.3477495
50
219.4151096
51
227.9577212
0
ARC
8
0
10
39.4939156
20
-0.3706881
40
1.6650298
50
185.8238519
51
218.2757081
0
ARC
8
0
10
39.5170685
20
-0.3529282
40
1.6899347
50
180.0392731
51
186.3432326
0
LINE
8
DEFAULT_255_2_778
10
40.3076028
20
3.1532978
11
40.3076028
21
-0.3540865
0
LINE
8
DEFAULT_255_2_778
10
37.8271342
20
-0.3540865
11
37.8271342
21
3.1408954
0
ARC
8
0
10
27.4637487
20
-0.3619175
40
1.6817633
50
324.614861
51
0.2667937
0
ARC
8
0
10
27.7077103
20
-0.5099899
40
1.3972737
50
320.2571033
51
323.7721457
0
ARC
8
0
10
27.8154992
20
-0.6136992
40
1.2481336
50
294.655396
51
320.7542644
0
ARC
8
0
10
27.89928
20
-0.7834319
40
1.0589383
50
270.1222361
51
294.3666232
0
ARC
8
0
10
27.9133991
20
-0.7419132
40
1.1005184
50
227.0365105
51
269.3825271
0
ARC
8
0
10
28.0658988
20
-0.5463794
40
1.3477153
50
219.4148091
51
227.9576063
0
ARC
8
0
10
28.3317784
20
-0.3706964
40
1.665001
50
185.8236643
51
218.276125
0
ARC
8
0
10
28.3550249
20
-0.3529263
40
1.6900001
50
180.039334
51
186.3430488
0
LINE
8
DEFAULT_255_2_778
10
29.1454938
20
3.1532978
11
29.1454938
21
-0.3540865
0
LINE
8
DEFAULT_255_2_778
10
26.6650251
20
-0.3540865
11
26.6650251
21
3.1408954
0
ENDSEC
0
EOF