0
SECTION
2
HEADER
0
ENDSEC
0
SECTION
2
TABLES
0
TABLE
2
LTYPE
0
LTYPE
72
65
70
64
2
CONTINUOUS
3
______
73
0
40
0
0
ENDTAB
0
TABLE
2
LAYER
0
LAYER
2
DEFAULT_255_2_778
70
0
62
255
6
CONTINUOUS
0
ENDTAB
0
ENDSEC
0
SECTION
2
ENTITIES
0
LINE
8
DEFAULT_255_2_778
10
22.9424832
20
52.7136753
11
48.9874044
21
52.7136753
0
LINE
8
DEFAULT_255_2_778
10
48.9874044
20
52.7136753
11
48.9874044
21
61.3953156
0
LINE
8
DEFAULT_255_2_778
10
48.9874044
20
61.3953156
11
22.9424832
21
61.3953156
0
LINE
8
DEFAULT_255_2_778
10
22.9424832
20
61.3953156
11
22.9424832
21
52.7136753
0
LINE
8
DEFAULT_255_2_778
10
39.0655296
20
27.2888713
11
39.0655296
21
43.8546797
0
ARC
8
0
10
50.4935834
20
63.2509812
40
2.2145239
50
0.121302
51
7.3311709
0
ARC
8
0
10
50.2754925
20
63.2252065
40
2.4341218
50
7.2778492
51
10.7652418
0
ARC
8
0
10
49.7703282
20
63.1083444
40
2.9522946
50
11.162086
51
26.4169979
0
ARC
8
0
10
48.9622023
20
62.7044079
40
3.8557481
50
26.450008
51
56.297643
0
ARC
8
0
10
49.4696019
20
63.4545382
40
2.9501521
50
56.4120412
51
70.0117937
0
ARC
8
0
10
49.6958897
20
64.0495019
40
2.3136946
50
70.2416615
51
78.8941267
0
ARC
8
0
10
49.75895
20
64.3587343
40
1.9981077
50
78.9604861
51
85.6294938
0
ARC
8
0
10
49.7730023
20
64.5251935
40
1.8310623
50
85.6709943
51
89.9781496
0
ARC
8
0
10
4.3753584
20
63.9335102
40
2.4227475
50
89.9221837
51
111.7307035
0
ARC
8
0
10
4.4467144
20
63.8093118
40
2.5646192
50
112.1842539
51
155.5450407
0
ARC
8
0
10
4.6074639
20
63.7191113
40
2.7483326
50
155.2206179
51
175.2016799
0
ARC
8
0
10
4.7032315
20
63.7075104
40
2.8447372
50
175.1301921
51
180.007959
0
ARC
8
0
10
4.5851876
20
-1.6877876
40
2.7266975
50
179.8994071
51
180.0023353
0
ARC
8
0
10
4.584299
20
-1.6969673
40
2.7258241
50
179.8093827
51
223.1365333
0
ARC
8
0
10
4.4090846
20
-1.851904
40
2.4920383
50
223.2914855
51
255.0291184
0
ARC
8
0
10
4.3815307
20
-1.932911
40
2.4066698
50
255.1646353
51
269.9905026
0
ARC
8
0
10
74.9823233
20
-1.8776924
40
2.4619155
50
270.2687247
51
315.3841335
0
ARC
8
0
10
74.883439
20
-1.7539798
40
2.61926
50
314.9770145
51
316.3864855
0
ARC
8
0
10
74.8044139
20
-1.702366
40
2.7121319
50
316.748624
51
0.3033435
0
ARC
8
0
10
74.6678004
20
-1.6881211
40
2.8487074
50
0.0022933
51
0.1029924
0
ARC
8
0
10
74.5386536
20
46.0286673
40
2.9778498
50
0.0027969
51
1.8532496
0
ARC
8
0
10
74.1934438
20
45.992566
40
3.3241398
50
2.2827538
51
38.5870373
0
ARC
8
0
10
74.7014988
20
46.4104996
40
2.6663643
50
38.3762939
51
60.0122349
0
ARC
8
0
10
75.0230499
20
46.9661634
40
2.0243701
50
60.0342142
51
89.6324891
0
LINE
8
DEFAULT_255_2_778
10
49.7737006
20
66.3562555
11
4.3786489
21
66.3562555
0
LINE
8
DEFAULT_255_2_778
10
1.8584943
20
63.7071152
11
1.8584943
21
-1.6830004
0
LINE
8
DEFAULT_255_2_778
10
4.3811318
20
-4.3395808
11
74.9938699
21
-4.3395808
0
LINE
8
DEFAULT_255_2_778
10
77.5165033
20
-1.6830004
11
77.5165033
21
46.0288126
0
LINE
8
DEFAULT_255_2_778
10
75.0360347
20
48.9904918
11
52.7118165
21
48.9904918
0
LINE
8
DEFAULT_255_2_778
10
52.7118165
20
48.9904918
11
52.7118165
21
63.2556696
0
LINE
8
DEFAULT_255_2_778
10
52.7118165
20
63.2556696
11
52.7081023
21
63.2556696
0
LINE
8
DEFAULT_255_2_778
10
1.8584994
20
4.3445389
11
77.5127942
21
4.3445389
0
LINE
8
DEFAULT_255_2_778
10
4.3389681
20
4.3445389
11
4.3389681
21
-3.9315465
0
LINE
8
DEFAULT_255_2_778
10
1.8584994
20
26.6985194
11
77.5127942
21
26.6985194
0
LINE
8
DEFAULT_255_2_778
10
1.8584994
20
43.9415031
11
77.5127942
21
43.9415031
0
ARC
8
0
10
12.9970823
20
15.5102365
40
6.2246857
50
359.966881
51
12.2366498
0
ARC
8
0
10
13.0607927
20
15.5211983
40
6.1601001
50
12.2626058
51
29.3969573
0
ARC
8
0
10
13.0067637
20
15.491645
40
6.2216788
50
29.3898433
51
69.9732087
0
ARC
8
0
10
13.0336472
20
15.5416339
40
6.1655116
50
70.0488414
51
84.1963849
0
ARC
8
0
10
13.0216211
20
15.4340483
40
6.2737618
50
84.1864715
51
90.0093683
0
ARC
8
0
10
13.0169972
20
15.4831255
40
6.2246857
50
89.966881
51
102.2366498
0
ARC
8
0
10
13.0060354
20
15.5468358
40
6.1601001
50
102.2626058
51
119.3969573
0
ARC
8
0
10
13.0355887
20
15.4928068
40
6.2216788
50
119.3898433
51
159.9732087
0
ARC
8
0
10
12.9855998
20
15.5196903
40
6.1655116
50
160.0488414
51
174.1963849
0
ARC
8
0
10
13.0931853
20
15.5076642
40
6.2737618
50
174.1864715
51
180.0093683
0
ARC
8
0
10
13.0441082
20
15.5030403
40
6.2246857
50
179.966881
51
192.2366498
0
ARC
8
0
10
12.9803979
20
15.4920785
40
6.1601001
50
192.2626058
51
209.3969573
0
ARC
8
0
10
13.0344268
20
15.5216318
40
6.2216788
50
209.3898433
51
249.9732087
0
ARC
8
0
10
13.0075434
20
15.4716429
40
6.1655116
50
250.0488414
51
264.1963849
0
ARC
8
0
10
13.0195695
20
15.5792285
40
6.2737618
50
264.1864715
51
270.0093683
0
ARC
8
0
10
13.0241934
20
15.5301514
40
6.2246857
50
269.966881
51
282.2366498
0
ARC
8
0
10
13.0351552
20
15.466441
40
6.1601001
50
282.2626058
51
299.3969573
0
ARC
8
0
10
13.0056019
20
15.52047
40
6.2216788
50
299.3898433
51
339.9732087
0
ARC
8
0
10
13.0555908
20
15.4935865
40
6.1655116
50
340.0488414
51
354.1963849
0
ARC
8
0
10
12.9480052
20
15.5056126
40
6.2737618
50
354.1864715
51
0.0093683
0
LINE
8
DEFAULT_255_2_778
10
10.5376437
20
19.2273414
11
13.0205953
21
16.7468728
0
LINE
8
DEFAULT_255_2_778
10
13.0205953
20
16.7468728
11
15.5035468
21
19.2273414
0
LINE
8
DEFAULT_255_2_778
10
15.5035468
20
19.2273414
11
16.7412983
21
17.9833848
0
LINE
8
DEFAULT_255_2_778
10
16.7412983
20
17.9833848
11
14.2583467
21
15.5029161
0
LINE
8
DEFAULT_255_2_778
10
14.2583467
20
15.5029161
11
16.7412983
21
13.0286446
0
LINE
8
DEFAULT_255_2_778
10
16.7412983
20
13.0286446
11
15.5035468
21
11.7859354
0
LINE
8
DEFAULT_255_2_778
10
15.5035468
20
11.7859354
11
13.0205953
21
14.2664041
0
LINE
8
DEFAULT_255_2_778
10
13.0205953
20
14.2664041
11
10.5376437
21
11.7859354
0
LINE
8
DEFAULT_255_2_778
10
10.5376437
20
11.7859354
11
9.2998922
21
13.0286446
0
LINE
8
DEFAULT_255_2_778
10
9.2998922
20
13.0286446
11
11.7828438
21
15.5029161
0
LINE
8
DEFAULT_255_2_778
10
11.7828438
20
15.5029161
11
9.2998922
21
17.9833848
0
LINE
8
DEFAULT_255_2_778
10
9.2998922
20
17.9833848
11
10.5376437
21
19.2273414
0
ARC
8
0
10
26.7688148
20
-1.6025263
40
2.5861011
50
179.8592649
51
179.998163
0
ARC
8
0
10
26.7251997
20
-1.6024285
40
2.542486
50
180.0003344
51
224.3470296
0
ARC
8
0
10
26.6707863
20
-1.6532421
40
2.4680558
50
224.3864328
51
269.8236532
0
ARC
8
0
10
26.6555938
20
-1.6532421
40
2.4680559
50
270.1763468
51
315.6135672
0
ARC
8
0
10
26.6011805
20
-1.6024285
40
2.5424861
50
315.6529704
51
359.9996656
0
ARC
8
0
10
26.5575654
20
-1.6025263
40
2.5861011
50
0.001837
51
0.1407351
0
ARC
8
0
10
52.877258
20
-1.7620286
40
2.6496489
50
179.7123129
51
179.9991004
0
ARC
8
0
10
52.8693225
20
-1.7619549
40
2.6417132
50
180.0006951
51
223.5419411
0
ARC
8
0
10
52.7167295
20
-1.9074706
40
2.4308594
50
223.5334352
51
269.9139109
0
ARC
8
0
10
52.6996639
20
-1.907519
40
2.4308454
50
270.3161526
51
316.5887197
0
ARC
8
0
10
52.5469061
20
-1.7621627
40
2.6417079
50
316.5754311
51
359.9996341
0
ARC
8
0
10
52.5255782
20
-1.7622208
40
2.663036
50
0.0008873
51
0.2903779
0
LINE
8
DEFAULT_255_2_778
10
24.1827214
20
4.2825367
11
24.1827214
21
-1.5961741
0
LINE
8
DEFAULT_255_2_778
10
29.1436588
20
-1.5961741
11
29.1436588
21
4.2825367
0
LINE
8
DEFAULT_255_2_778
10
50.2276426
20
4.2825367
11
50.2276426
21
-1.7487245
0
LINE
8
DEFAULT_255_2_778
10
55.1885799
20
-1.7487245
11
55.1885799
21
4.2825367
0
LINE
8
DEFAULT_255_2_778
10
75.0298505
20
3.9389894
11
75.0323294
21
-4.337092
0
ARC
8
0
10
6.8269696
20
58.9184591
40
2.4880173
50
159.6502895
51
180.0830307
0
ARC
8
0
10
6.8138114
20
58.9200552
40
2.4751272
50
100.6655888
51
159.5790082
0
ARC
8
0
10
6.8180646
20
58.8825296
40
2.5127931
50
89.9690124
51
100.6025328
0
ARC
8
0
10
16.7449053
20
58.9073127
40
2.4880122
50
69.650242
51
90.0830651
0
ARC
8
0
10
16.7465002
20
58.9204662
40
2.4751268
50
10.6655563
51
69.5789721
0
ARC
8
0
10
16.7089608
20
58.9162115
40
2.5128066
50
359.9690376
51
10.6024783
0
ARC
8
0
10
16.7337523
20
55.190545
40
2.4880173
50
339.6502896
51
0.0830307
0
ARC
8
0
10
16.7469109
20
55.1889483
40
2.4751266
50
280.665584
51
339.5790182
0
ARC
8
0
10
16.7426574
20
55.2264742
40
2.5127928
50
269.9690089
51
280.6025338
0
ARC
8
0
10
6.8158166
20
55.2016898
40
2.4880105
50
249.6502325
51
270.0830649
0
ARC
8
0
10
6.8142219
20
55.188538
40
2.4751269
50
190.6655569
51
249.578972
0
ARC
8
0
10
6.8517611
20
55.1927926
40
2.5128066
50
179.9690376
51
190.6024784
0
LINE
8
DEFAULT_255_2_778
10
6.8194236
20
61.3953223
11
16.7412983
21
61.3953223
0
LINE
8
DEFAULT_255_2_778
10
19.221767
20
58.9148536
11
19.221767
21
55.1941505
0
LINE
8
DEFAULT_255_2_778
10
16.7412983
20
52.7136819
11
6.8194236
21
52.7136819
0
LINE
8
DEFAULT_255_2_778
10
4.3389549
20
55.1941505
11
4.3389549
21
58.9148536
0
ARC
8
0
10
12.3948363
20
34.7336916
40
4.3464765
50
359.9550795
51
15.0258381
0
ARC
8
0
10
12.412608
20
34.7340548
40
4.3292205
50
15.0821735
51
40.1219267
0
ARC
8
0
10
12.3959867
20
34.7270982
40
4.3464166
50
40.0508544
51
71.9381974
0
ARC
8
0
10
12.406714
20
34.7421169
40
4.3288156
50
72.0115534
51
87.7661997
0
ARC
8
0
10
12.400616
20
34.6542483
40
4.4168559
50
87.7315837
51
90.0016167
0
ARC
8
0
10
12.3970836
20
34.724626
40
4.3464794
50
89.9550793
51
105.0258326
0
ARC
8
0
10
12.3967203
20
34.7424
40
4.329221
50
105.0821733
51
130.1219266
0
ARC
8
0
10
12.403679
20
34.7257782
40
4.3464187
50
130.0508719
51
161.9381969
0
ARC
8
0
10
12.3886556
20
34.7365066
40
4.328813
50
162.0115472
51
177.7661988
0
ARC
8
0
10
12.4765252
20
34.7304086
40
4.4168542
50
177.7315837
51
180.0016167
0
ARC
8
0
10
12.4061497
20
34.7268761
40
4.3464799
50
179.9550771
51
195.0258329
0
ARC
8
0
10
12.3883737
20
34.7265116
40
4.3292193
50
195.0821661
51
220.1219282
0
ARC
8
0
10
12.4049942
20
34.7334686
40
4.3464152
50
220.0508672
51
251.9382159
0
ARC
8
0
10
12.3942698
20
34.7184611
40
4.3288257
50
252.0115816
51
267.7661903
0
ARC
8
0
10
12.4003667
20
34.8063196
40
4.4168559
50
267.7315837
51
270.0016167
0
ARC
8
0
10
12.4038983
20
34.7359532
40
4.3464908
50
269.9550893
51
285.0258029
0
ARC
8
0
10
12.4042635
20
34.718167
40
4.32922
50
285.0821613
51
310.1219167
0
ARC
8
0
10
12.3973062
20
34.7347872
40
4.3464158
50
310.0508611
51
341.9382072
0
ARC
8
0
10
12.4123244
20
34.7240609
40
4.3288156
50
342.0115527
51
357.7662031
0
ARC
8
0
10
12.3244539
20
34.7301593
40
4.4168577
50
357.7315837
51
0.0016167
0
LINE
8
DEFAULT_255_2_778
10
10.5922164
20
36.9007014
11
14.2099834
21
32.9220281
0
LINE
8
DEFAULT_255_2_778
10
14.2087477
20
36.9007014
11
10.2300733
21
32.9220281
0
ARC
8
0
10
29.758117
20
34.7336916
40
4.3464766
50
359.9550795
51
15.0258381
0
ARC
8
0
10
29.7758883
20
34.7340546
40
4.3292209
50
15.0821738
51
40.121927
0
ARC
8
0
10
29.7592655
20
34.7270957
40
4.3464195
50
40.0508655
51
71.9381876
0
ARC
8
0
10
29.7699947
20
34.7421195
40
4.328813
50
72.0115471
51
87.7661988
0
ARC
8
0
10
29.7638967
20
34.65425
40
4.4168542
50
87.7315837
51
90.0016167
0
ARC
8
0
10
29.7603644
20
34.7246289
40
4.3464766
50
89.9550795
51
105.0258381
0
ARC
8
0
10
29.7600014
20
34.7424001
40
4.3292209
50
105.0821738
51
130.121927
0
ARC
8
0
10
29.7669603
20
34.7257774
40
4.3464195
50
130.0508655
51
161.9381876
0
ARC
8
0
10
29.7519365
20
34.7365065
40
4.328813
50
162.0115471
51
177.7661988
0
ARC
8
0
10
29.839806
20
34.7304086
40
4.4168542
50
177.7315837
51
180.0016167
0
ARC
8
0
10
29.7694305
20
34.7268761
40
4.34648
50
179.9550771
51
195.025833
0
ARC
8
0
10
29.7516549
20
34.7265117
40
4.3292197
50
195.0821664
51
220.1219284
0
ARC
8
0
10
29.7682769
20
34.7334711
40
4.346418
50
220.0508783
51
251.9382061
0
ARC
8
0
10
29.7575506
20
34.7184585
40
4.3288232
50
252.0115753
51
267.7661893
0
ARC
8
0
10
29.7636475
20
34.8063178
40
4.4168542
50
267.7315837
51
270.0016167
0
ARC
8
0
10
29.767179
20
34.7359503
40
4.3464879
50
269.9550895
51
285.0258084
0
ARC
8
0
10
29.7675439
20
34.7181669
40
4.3292199
50
285.0821617
51
310.1219171
0
ARC
8
0
10
29.7605864
20
34.7347881
40
4.3464165
50
310.0508547
51
341.9381979
0
ARC
8
0
10
29.7756051
20
34.724061
40
4.3288156
50
342.0115526
51
357.7662031
0
ARC
8
0
10
29.6877346
20
34.7301593
40
4.4168577
50
357.7315837
51
0.0016167
0
LINE
8
DEFAULT_255_2_778
10
27.9554966
20
36.9007014
11
31.5732646
21
32.9220281
0
LINE
8
DEFAULT_255_2_778
10
31.572029
20
36.9007014
11
27.5933536
21
32.9220281
0
ARC
8
0
10
49.6018551
20
34.7336909
40
4.3464879
50
359.9550895
51
15.0258084
0
ARC
8
0
10
49.6196386
20
34.7340558
40
4.3292199
50
15.0821617
51
40.1219171
0
ARC
8
0
10
49.6030174
20
34.7270983
40
4.3464165
50
40.0508547
51
71.9381979
0
ARC
8
0
10
49.6137445
20
34.7421169
40
4.3288156
50
72.0115526
51
87.7662031
0
ARC
8
0
10
49.6076462
20
34.6542465
40
4.4168577
50
87.7315837
51
90.0016167
0
ARC
8
0
10
49.6041137
20
34.7246255
40
4.34648
50
89.9550771
51
105.025833
0
ARC
8
0
10
49.6037493
20
34.7424011
40
4.3292197
50
105.0821664
51
130.1219284
0
ARC
8
0
10
49.6107087
20
34.7257791
40
4.346418
50
130.0508783
51
161.9382061
0
ARC
8
0
10
49.5956961
20
34.7365054
40
4.3288232
50
162.0115753
51
177.7661893
0
ARC
8
0
10
49.6835554
20
34.7304086
40
4.4168542
50
177.7315837
51
180.0016167
0
ARC
8
0
10
49.6131913
20
34.7268768
40
4.3464913
50
179.9550871
51
195.0258033
0
ARC
8
0
10
49.5954035
20
34.7265106
40
4.3292187
50
195.0821543
51
220.1219185
0
ARC
8
0
10
49.6120239
20
34.7334686
40
4.346415
50
220.0508675
51
251.9382164
0
ARC
8
0
10
49.6012997
20
34.7184611
40
4.3288257
50
252.0115809
51
267.7661936
0
ARC
8
0
10
49.6073969
20
34.8063214
40
4.4168577
50
267.7315837
51
270.0016167
0
ARC
8
0
10
49.6109287
20
34.7359537
40
4.3464913
50
269.9550871
51
285.0258033
0
ARC
8
0
10
49.6112949
20
34.7181659
40
4.3292187
50
285.0821543
51
310.1219185
0
ARC
8
0
10
49.6043369
20
34.7347863
40
4.346415
50
310.0508675
51
341.9382164
0
ARC
8
0
10
49.6193444
20
34.7240621
40
4.3288257
50
342.0115809
51
357.7661936
0
ARC
8
0
10
49.5314841
20
34.7301593
40
4.4168577
50
357.7315837
51
0.0016167
0
LINE
8
DEFAULT_255_2_778
10
47.7992531
20
36.9007014
11
51.417007
21
32.9220281
0
LINE
8
DEFAULT_255_2_778
10
51.4157754
20
36.9007014
11
47.437106
21
32.9220281
0
ARC
8
0
10
66.9651359
20
34.7336894
40
4.3464879
50
359.9551092
51
15.0258285
0
ARC
8
0
10
66.9829177
20
34.7340526
40
4.329222
50
15.0821973
51
40.1219463
0
ARC
8
0
10
66.9662941
20
34.727094
40
4.3464213
50
40.0508742
51
71.9381834
0
ARC
8
0
10
66.9770246
20
34.7421221
40
4.3288104
50
72.0115415
51
87.7661945
0
ARC
8
0
10
66.9709269
20
34.6542637
40
4.4168405
50
87.7315784
51
90.0016167
0
ARC
8
0
10
66.9673944
20
34.7246255
40
4.34648
50
89.9550771
51
105.025833
0
ARC
8
0
10
66.9670301
20
34.7424011
40
4.3292197
50
105.0821664
51
130.1219284
0
ARC
8
0
10
66.9739895
20
34.7257791
40
4.346418
50
130.0508783
51
161.9382061
0
ARC
8
0
10
66.9589768
20
34.7365054
40
4.3288232
50
162.0115753
51
177.7661893
0
ARC
8
0
10
67.0468362
20
34.7304086
40
4.4168542
50
177.7315837
51
180.0016167
0
ARC
8
0
10
66.9764721
20
34.7268768
40
4.3464913
50
179.9550871
51
195.0258033
0
ARC
8
0
10
66.9586843
20
34.7265106
40
4.3292187
50
195.0821543
51
220.1219185
0
ARC
8
0
10
66.9753047
20
34.7334686
40
4.346415
50
220.0508675
51
251.9382164
0
ARC
8
0
10
66.9645804
20
34.7184611
40
4.3288257
50
252.0115809
51
267.7661936
0
ARC
8
0
10
66.9706777
20
34.8063214
40
4.4168577
50
267.7315837
51
270.0016167
0
ARC
8
0
10
66.9742091
20
34.7359469
40
4.3464845
50
269.9550919
51
285.0258136
0
ARC
8
0
10
66.9745717
20
34.7181701
40
4.3292234
50
285.0821725
51
310.1219056
0
ARC
8
0
10
66.9676139
20
34.7347907
40
4.3464197
50
310.0508522
51
341.9381759
0
ARC
8
0
10
66.9826351
20
34.724061
40
4.3288156
50
342.0115524
51
357.7662029
0
ARC
8
0
10
66.8947649
20
34.7301593
40
4.4168577
50
357.7315837
51
0.0016167
0
LINE
8
DEFAULT_255_2_778
10
65.1625319
20
36.9007014
11
68.7802898
21
32.9220281
0
ARC
8
0
10
39.0420034
20
15.510253
40
6.2246857
50
359.966881
51
12.2366498
0
ARC
8
0
10
39.1057137
20
15.5212149
40
6.1601001
50
12.2626058
51
29.3969573
0
ARC
8
0
10
39.0516848
20
15.4916616
40
6.2216788
50
29.3898433
51
69.9732087
0
ARC
8
0
10
39.0785682
20
15.5416505
40
6.1655116
50
70.0488414
51
84.1963849
0
ARC
8
0
10
39.0665421
20
15.4340649
40
6.2737618
50
84.1864715
51
90.0093683
0
ARC
8
0
10
39.0619182
20
15.483142
40
6.2246857
50
89.966881
51
102.2366498
0
ARC
8
0
10
39.0509564
20
15.5468524
40
6.1601001
50
102.2626058
51
119.3969573
0
ARC
8
0
10
39.0805097
20
15.4928234
40
6.2216788
50
119.3898433
51
159.9732087
0
ARC
8
0
10
39.0305208
20
15.5197069
40
6.1655116
50
160.0488414
51
174.1963849
0
ARC
8
0
10
39.1381064
20
15.5076808
40
6.2737618
50
174.1864715
51
180.0093683
0
ARC
8
0
10
39.0890293
20
15.5030569
40
6.2246857
50
179.966881
51
192.2366498
0
ARC
8
0
10
39.0253189
20
15.4920951
40
6.1601001
50
192.2626058
51
209.3969573
0
ARC
8
0
10
39.0793479
20
15.5216484
40
6.2216788
50
209.3898433
51
249.9732087
0
ARC
8
0
10
39.0524644
20
15.4716595
40
6.1655116
50
250.0488414
51
264.1963849
0
ARC
8
0
10
39.0644905
20
15.579245
40
6.2737618
50
264.1864715
51
270.0093683
0
ARC
8
0
10
39.0691144
20
15.5301679
40
6.2246857
50
269.966881
51
282.2366498
0
ARC
8
0
10
39.0800762
20
15.4664576
40
6.1601001
50
282.2626058
51
299.3969573
0
ARC
8
0
10
39.0505229
20
15.5204865
40
6.2216788
50
299.3898433
51
339.9732087
0
ARC
8
0
10
39.1005118
20
15.4936031
40
6.1655116
50
340.0488414
51
354.1963849
0
ARC
8
0
10
38.9929263
20
15.5056292
40
6.2737618
50
354.1864715
51
0.0093683
0
LINE
8
DEFAULT_255_2_778
10
68.7790442
20
36.9006973
11
64.8003789
21
32.922024
0
LINE
8
DEFAULT_255_2_778
10
36.5825648
20
19.2273414
11
39.0655164
21
16.7468728
0
LINE
8
DEFAULT_255_2_778
10
39.0655164
20
16.7468728
11
41.5484599
21
19.2273414
0
LINE
8
DEFAULT_255_2_778
10
41.5484599
20
19.2273414
11
42.7862194
21
17.9833848
0
LINE
8
DEFAULT_255_2_778
10
42.7862194
20
17.9833848
11
40.3032759
21
15.5029161
0
LINE
8
DEFAULT_255_2_778
10
40.3032759
20
15.5029161
11
42.7862194
21
13.0286446
0
LINE
8
DEFAULT_255_2_778
10
42.7862194
20
13.0286446
11
41.5484599
21
11.7859354
0
LINE
8
DEFAULT_255_2_778
10
41.5484599
20
11.7859354
11
39.0655164
21
14.2664041
0
LINE
8
DEFAULT_255_2_778
10
39.0655164
20
14.2664041
11
36.5825648
21
11.7859354
0
LINE
8
DEFAULT_255_2_778
10
36.5825648
20
11.7859354
11
35.3448134
21
13.0286446
0
LINE
8
DEFAULT_255_2_778
10
35.3448134
20
13.0286446
11
37.827765
21
15.5029161
0
LINE
8
DEFAULT_255_2_778
10
37.827765
20
15.5029161
11
35.3448134
21
17.9833848
0
LINE
8
DEFAULT_255_2_778
10
35.3448134
20
17.9833848
11
36.5825648
21
19.2273414
0
ARC
8
0
10
66.327159
20
15.5102365
40
6.2246857
50
359.966881
51
12.2366498
0
ARC
8
0
10
66.3908693
20
15.5211983
40
6.1601001
50
12.2626058
51
29.3969573
0
ARC
8
0
10
66.3368403
20
15.491645
40
6.2216788
50
29.3898433
51
69.9732087
0
ARC
8
0
10
66.3637238
20
15.5416339
40
6.1655116
50
70.0488414
51
84.1963849
0
ARC
8
0
10
66.3516977
20
15.4340483
40
6.2737618
50
84.1864715
51
90.0093683
0
ARC
8
0
10
66.3470738
20
15.4831255
40
6.2246857
50
89.966881
51
102.2366498
0
ARC
8
0
10
66.336112
20
15.5468358
40
6.1601001
50
102.2626058
51
119.3969573
0
ARC
8
0
10
66.3656653
20
15.4928068
40
6.2216788
50
119.3898433
51
159.9732087
0
ARC
8
0
10
66.3156764
20
15.5196903
40
6.1655116
50
160.0488414
51
174.1963849
0
ARC
8
0
10
66.423262
20
15.5076642
40
6.2737618
50
174.1864715
51
180.0093683
0
ARC
8
0
10
66.3741849
20
15.5030403
40
6.2246857
50
179.966881
51
192.2366498
0
ARC
8
0
10
66.3104745
20
15.4920785
40
6.1601001
50
192.2626058
51
209.3969573
0
ARC
8
0
10
66.3645035
20
15.5216318
40
6.2216788
50
209.3898433
51
249.9732087
0
ARC
8
0
10
66.33762
20
15.4716429
40
6.1655116
50
250.0488414
51
264.1963849
0
ARC
8
0
10
66.3496461
20
15.5792285
40
6.2737618
50
264.1864715
51
270.0093683
0
ARC
8
0
10
66.35427
20
15.5301514
40
6.2246857
50
269.966881
51
282.2366498
0
ARC
8
0
10
66.3652318
20
15.466441
40
6.1601001
50
282.2626058
51
299.3969573
0
ARC
8
0
10
66.3356785
20
15.52047
40
6.2216788
50
299.3898433
51
339.9732087
0
ARC
8
0
10
66.3856674
20
15.4935865
40
6.1655116
50
340.0488414
51
354.1963849
0
ARC
8
0
10
66.2780818
20
15.5056126
40
6.2737618
50
354.1864715
51
0.0093683
0
LINE
8
DEFAULT_255_2_778
10
63.8677284
20
19.2273414
11
66.3506719
21
16.7468728
0
LINE
8
DEFAULT_255_2_778
10
66.3506719
20
16.7468728
11
68.8336194
21
19.2273414
0
LINE
8
DEFAULT_255_2_778
10
68.8336194
20
19.2273414
11
70.0713749
21
17.9833848
0
LINE
8
DEFAULT_255_2_778
10
70.0713749
20
17.9833848
11
67.5884314
21
15.5029161
0
LINE
8
DEFAULT_255_2_778
10
67.5884314
20
15.5029161
11
70.0713749
21
13.0286446
0
LINE
8
DEFAULT_255_2_778
10
70.0713749
20
13.0286446
11
68.8336194
21
11.7859354
0
LINE
8
DEFAULT_255_2_778
10
68.8336194
20
11.7859354
11
66.3506719
21
14.2664041
0
LINE
8
DEFAULT_255_2_778
10
66.3506719
20
14.2664041
11
63.8677284
21
11.7859354
0
LINE
8
DEFAULT_255_2_778
10
63.8677284
20
11.7859354
11
62.6299689
21
13.0286446
0
LINE
8
DEFAULT_255_2_778
10
62.6299689
20
13.0286446
11
65.1129124
21
15.5029161
0
LINE
8
DEFAULT_255_2_778
10
65.1129124
20
15.5029161
11
62.6299689
21
17.9833848
0
LINE
8
DEFAULT_255_2_778
10
62.6299689
20
17.9833848
11
63.8677284
21
19.2273414
0
ENDSEC
0
EOF