0
SECTION
2
HEADER
0
ENDSEC
0
SECTION
2
TABLES
0
TABLE
2
LTYPE
0
LTYPE
72
65
70
64
2
CONTINUOUS
3
______
73
0
40
0
0
ENDTAB
0
TABLE
2
LAYER
0
LAYER
2
DEFAULT_255_2_778
70
0
62
255
6
CONTINUOUS
0
ENDTAB
0
ENDSEC
0
SECTION
2
ENTITIES
0
LINE
8
DEFAULT_255_2_778
10
11.5124558
20
13.3997269
11
17.0191518
21
12.9179532
0
LINE
8
DEFAULT_255_2_778
10
11.4726113
20
10.541773
11
16.4326746
21
10.5422373
0
LINE
8
DEFAULT_255_2_778
10
12.1045373
20
18.2017262
11
18.9980793
21
16.9862158
0
LINE
8
DEFAULT_255_2_778
10
12.7117619
20
20.4636389
11
17.6724581
21
19.2229604
0
LINE
8
DEFAULT_255_2_778
10
13.1672175
20
22.9224528
11
18.6335816
21
21.4577489
0
LINE
8
DEFAULT_255_2_778
10
13.9533919
20
25.1151645
11
18.9153184
21
23.5640399
0
LINE
8
DEFAULT_255_2_778
10
14.6030572
20
27.5612912
11
21.3066681
21
25.1213765
0
LINE
8
DEFAULT_255_2_778
10
15.5024328
20
29.8496914
11
19.8701883
21
27.9050387
0
LINE
8
DEFAULT_255_2_778
10
16.5148246
20
32.0220615
11
21.7191064
21
29.5952676
0
LINE
8
DEFAULT_255_2_778
10
17.6731808
20
34.2652836
11
21.8743535
21
31.9365337
0
LINE
8
DEFAULT_255_2_778
10
18.759132
20
36.3506476
11
25.0037967
21
32.745288
0
LINE
8
DEFAULT_255_2_778
10
20.1910338
20
38.6605169
11
24.1845641
21
35.9668506
0
LINE
8
DEFAULT_255_2_778
10
21.454264
20
40.4093098
11
26.1905784
21
37.0929143
0
LINE
8
DEFAULT_255_2_778
10
23.2551014
20
42.168331
11
27.0016547
21
39.4440363
0
LINE
8
DEFAULT_255_2_778
10
24.4390915
20
44.290451
11
29.9780257
21
39.6427354
0
LINE
8
DEFAULT_255_2_778
10
25.9904082
20
46.1987524
11
29.4555148
21
42.8525339
0
LINE
8
DEFAULT_255_2_778
10
27.8264583
20
47.8204016
11
31.9131758
21
43.7336841
0
LINE
8
DEFAULT_255_2_778
10
29.7658851
20
49.5149521
11
32.9180323
21
45.888821
0
LINE
8
DEFAULT_255_2_778
10
31.4639231
20
51.1281549
11
36.0933017
21
45.6110762
0
LINE
8
DEFAULT_255_2_778
10
33.774256
20
52.5494704
11
36.5867054
21
48.6784697
0
LINE
8
DEFAULT_255_2_778
10
35.4321191
20
54.0207333
11
38.7214855
21
49.3230268
0
LINE
8
DEFAULT_255_2_778
10
37.5467373
20
55.1899415
11
40.3066947
21
50.8494463
0
LINE
8
DEFAULT_255_2_778
10
39.6068786
20
56.647974
11
43.1694437
21
50.4774226
0
LINE
8
DEFAULT_255_2_778
10
41.8576377
20
57.6701503
11
43.9268912
21
53.4275416
0
LINE
8
DEFAULT_255_2_778
10
44.0300968
20
58.8198279
11
46.4202003
21
53.6942315
0
LINE
8
DEFAULT_255_2_778
10
46.5081343
20
59.5308913
11
48.1289293
21
55.6096868
0
LINE
8
DEFAULT_255_2_778
10
48.6103333
20
60.6806462
11
51.0048656
21
54.101739
0
LINE
8
DEFAULT_255_2_778
10
50.8492457
20
61.3916703
11
52.090231
21
57.3607876
0
LINE
8
DEFAULT_255_2_778
10
53.3487586
20
62.068664
11
54.7823193
21
56.7185073
0
LINE
8
DEFAULT_255_2_778
10
55.8108811
20
62.6313861
11
56.740855
21
58.2890147
0
LINE
8
DEFAULT_255_2_778
10
58.1873723
20
63.1007934
11
59.3744607
21
56.3684737
0
LINE
8
DEFAULT_255_2_778
10
60.4622255
20
63.5622727
11
61.032374
21
59.4071143
0
LINE
8
DEFAULT_255_2_778
10
62.6320561
20
63.8717557
11
63.251822
21
57.6699926
0
LINE
8
DEFAULT_255_2_778
10
65.1113684
20
64.1822347
11
65.4220326
21
59.5311077
0
LINE
8
DEFAULT_255_2_778
10
67.4154081
20
64.4599415
11
67.4154081
21
57.828408
0
ARC
8
0
10
13.093192
20
62.6359126
40
6.271913
50
168.1624267
51
180.037179
0
ARC
8
0
10
12.9852628
20
62.6564399
40
6.1620685
50
151.8357461
51
168.1433689
0
ARC
8
0
10
13.0127125
20
62.6408387
40
6.1936319
50
109.88292
51
151.8283671
0
ARC
8
0
10
13.0049875
20
62.6444747
40
6.1875883
50
96.2170321
51
109.8271027
0
ARC
8
0
10
13.0211097
20
62.5093459
40
6.3236686
50
89.9878376
51
96.2296588
0
ARC
8
0
10
66.3569899
20
62.5611178
40
6.271898
50
78.1624122
51
90.0371776
0
ARC
8
0
10
66.3775221
20
62.6690521
40
6.1620477
50
61.8357263
51
78.1433893
0
ARC
8
0
10
66.361915
20
62.6415859
40
6.1936285
50
19.8829118
51
61.8283705
0
ARC
8
0
10
66.36553
20
62.6493044
40
6.1876069
50
6.2170472
51
19.8270852
0
ARC
8
0
10
66.230411
20
62.6331853
40
6.323677
50
359.9878362
51
6.2296555
0
ARC
8
0
10
66.2821719
20
9.2973045
40
6.2719173
50
348.1624305
51
0.0371809
0
ARC
8
0
10
66.3901151
20
9.2767726
40
6.1620583
50
331.8357427
51
348.1433879
0
ARC
8
0
10
66.3626677
20
9.2923707
40
6.1936185
50
289.8828784
51
331.8283788
0
ARC
8
0
10
66.370385
20
9.2887509
40
6.1875928
50
276.2170234
51
289.8270769
0
ARC
8
0
10
66.3542626
20
9.4238695
40
6.3236628
50
269.9878376
51
276.2296624
0
ARC
8
0
10
13.0183805
20
9.3721079
40
6.2719024
50
258.1624336
51
270.0371948
0
ARC
8
0
10
12.9978532
20
9.2641943
40
6.1620733
50
241.8358067
51
258.1434055
0
ARC
8
0
10
13.0134461
20
9.2916315
40
6.1936218
50
199.8829426
51
241.8284397
0
ARC
8
0
10
13.0098239
20
9.2839096
40
6.1875922
50
186.2170353
51
199.8271086
0
ARC
8
0
10
13.1448978
20
9.3000302
40
6.3236177
50
179.9878193
51
186.2297016
0
LINE
8
DEFAULT_255_2_778
10
13.022452
20
68.8330145
11
66.3529202
21
68.8330145
0
LINE
8
DEFAULT_255_2_778
10
72.5540879
20
62.6318428
11
72.5540879
21
9.3013745
0
LINE
8
DEFAULT_255_2_778
10
66.3529202
20
3.1002069
11
13.022452
21
3.1002069
0
LINE
8
DEFAULT_255_2_778
10
6.8212803
20
9.3013745
11
6.8212803
21
62.6318428
0
LINE
8
DEFAULT_255_2_778
10
57.0507767
20
17.3632791
11
36.3686296
21
37.3248468
0
LINE
8
DEFAULT_255_2_778
10
36.3686296
20
37.3248468
11
34.8158538
21
40.3510226
0
LINE
8
DEFAULT_255_2_778
10
34.8158538
20
40.3510226
11
37.920162
21
38.8379367
0
LINE
8
DEFAULT_255_2_778
10
37.920162
20
38.8379367
11
58.6035444
21
18.876369
0
LINE
8
DEFAULT_255_2_778
10
58.6035444
20
18.876369
11
57.0507767
21
17.3632791
0
ARC
8
0
10
69.0761281
20
8.0657462
40
15.2127592
50
173.1080123
51
180.0159019
0
ARC
8
0
10
68.7394003
20
8.1061991
40
14.8736104
50
165.1768113
51
173.1070645
0
ARC
8
0
10
68.5057161
20
8.1680383
40
14.6318825
50
155.7997516
51
165.1767958
0
ARC
8
0
10
68.3102579
20
8.2571133
40
14.4170873
50
144.4806799
51
155.8042161
0
ARC
8
0
10
68.0121567
20
8.4805234
40
14.0446631
50
127.381769
51
144.515959
0
ARC
8
0
10
67.6548632
20
8.9520891
40
13.4530325
50
108.5317115
51
127.3919486
0
ARC
8
0
10
67.5660455
20
9.1758175
40
13.2126826
50
98.1708862
51
108.4748833
0
ARC
8
0
10
67.5885782
20
9.0034103
40
13.3865422
50
89.9983161
51
98.1614715
0
LINE
8
0
10
67.5889716
20
22.3899525
11
67.5927596
21
22.389953
0
LINE
8
DEFAULT_255_2_778
10
67.5927596
20
22.389953
11
67.5927596
21
8.0615241
0
LINE
8
DEFAULT_255_2_778
10
67.5927596
20
8.0615241
11
53.8633695
21
8.0615241
0
ARC
8
0
10
8.1322605
20
67.5968414
40
6.2719104
50
168.162423
51
180.037179
0
ARC
8
0
10
8.0243297
20
67.6173697
40
6.1620641
50
151.835738
51
168.1433716
0
ARC
8
0
10
8.0517841
20
67.6017673
40
6.1936323
50
109.8829246
51
151.8283695
0
ARC
8
0
10
8.0440619
20
67.6053919
40
6.1876003
50
96.217051
51
109.8270964
0
ARC
8
0
10
8.0601809
20
67.4702739
40
6.3236694
50
89.9878376
51
96.2296588
0
ARC
8
0
10
71.3175444
20
67.522035
40
6.2719095
50
78.162423
51
90.037179
0
ARC
8
0
10
71.3380742
20
67.6299661
40
6.1620629
50
61.8357499
51
78.1433843
0
ARC
8
0
10
71.3224751
20
67.6025151
40
6.1936266
50
19.8829121
51
61.8283935
0
ARC
8
0
10
71.3261023
20
67.6102354
40
6.1875929
50
6.2170397
51
19.8271078
0
ARC
8
0
10
71.1910359
20
67.5941158
40
6.3236106
50
359.9878208
51
6.229705
0
ARC
8
0
10
71.242738
20
4.3367504
40
6.2719096
50
348.162423
51
0.037179
0
ARC
8
0
10
71.3506689
20
4.3162206
40
6.162063
50
331.8357499
51
348.1433843
0
ARC
8
0
10
71.3232167
20
4.3318212
40
6.1936285
50
289.8829179
51
331.8283865
0
ARC
8
0
10
71.3309391
20
4.3281881
40
6.1875885
50
276.2170375
51
289.8271145
0
ARC
8
0
10
71.3148188
20
4.4632581
40
6.3236098
50
269.9878208
51
276.229705
0
ARC
8
0
10
8.0574536
20
4.4115522
40
6.271905
50
258.1624195
51
270.0371774
0
ARC
8
0
10
8.0369264
20
4.3036296
40
6.1620671
50
241.835753
51
258.1433732
0
ARC
8
0
10
8.0525272
20
4.3310811
40
6.1936321
50
199.8829358
51
241.8283846
0
ARC
8
0
10
8.0488915
20
4.3233558
40
6.1875886
50
186.2170376
51
199.8271146
0
ARC
8
0
10
8.1839611
20
4.339476
40
6.3236098
50
179.9878208
51
186.229705
0
LINE
8
DEFAULT_255_2_778
10
8.0615232
20
73.7939433
11
71.3134746
21
73.7939433
0
LINE
8
DEFAULT_255_2_778
10
77.5146463
20
67.5927716
11
77.5146463
21
4.3408202
0
LINE
8
DEFAULT_255_2_778
10
71.3134746
20
-1.8603515
11
8.0615232
21
-1.8603515
0
LINE
8
DEFAULT_255_2_778
10
1.8603515
20
4.3408202
11
1.8603515
21
67.5927716
0
LINE
8
DEFAULT_255_2_778
10
11.1794608
20
8.06151
11
17.9833896
21
8.06151
0
LINE
8
DEFAULT_255_2_778
10
11.7821527
20
15.8136395
11
16.3726882
21
15.2308747
0
LINE
8
DEFAULT_255_2_778
10
58.9111444
20
16.1230464
11
61.3916131
21
11.1621091
0
LINE
8
DEFAULT_255_2_778
10
61.3916131
20
11.1621091
11
63.8720818
21
16.1230464
0
ENDSEC
0
EOF