0
SECTION
2
HEADER
0
ENDSEC
0
SECTION
2
TABLES
0
TABLE
2
LTYPE
0
LTYPE
72
65
70
64
2
CONTINUOUS
3
______
73
0
40
0
0
ENDTAB
0
TABLE
2
LAYER
0
LAYER
2
DEFAULT_255_2_778
70
0
62
255
6
CONTINUOUS
0
ENDTAB
0
ENDSEC
0
SECTION
2
ENTITIES
0
ARC
8
0
10
20.4610486
20
70.6912397
40
0.6173028
50
178.9778285
51
179.8034375
0
ARC
8
0
10
21.3378353
20
70.6769564
40
1.4942054
50
178.1159812
51
179.0299904
0
ARC
8
0
10
22.1995932
20
70.6482276
40
2.3564419
50
176.7183803
51
178.1066969
0
ARC
8
0
10
22.9126944
20
70.6082776
40
3.0706608
50
175.3613641
51
176.735848
0
ARC
8
0
10
23.4323704
20
70.5661151
40
3.5920445
50
173.5409184
51
175.3614015
0
ARC
8
0
10
23.7592775
20
70.5297349
40
3.9209692
50
171.7948836
51
173.5500612
0
ARC
8
0
10
23.9214332
20
70.5064555
40
4.0847873
50
169.2355014
51
171.7963053
0
ARC
8
0
10
23.923016
20
70.5067178
40
4.0862934
50
166.0777513
51
169.2432591
0
ARC
8
0
10
23.7628618
20
70.5472737
40
3.9210863
50
162.0093634
51
166.0898881
0
ARC
8
0
10
23.476027
20
70.6416618
40
3.6191229
50
156.6758121
51
162.0280594
0
ARC
8
0
10
23.2232903
20
70.7486834
40
3.344667
50
153.4505295
51
156.6451298
0
ARC
8
0
10
22.9546107
20
70.8871968
40
3.0424108
50
145.241209
51
153.5223787
0
ARC
8
0
10
22.6839086
20
71.0745597
40
2.7131932
50
135.4587716
51
145.2326827
0
ARC
8
0
10
22.5696835
20
71.1840452
40
2.5549849
50
125.6780591
51
135.4120219
0
ARC
8
0
10
22.5838689
20
71.1614197
40
2.5816376
50
116.9150625
51
125.640931
0
ARC
8
0
10
22.6614126
20
71.0075709
40
2.753923
50
109.6723516
51
116.9046914
0
ARC
8
0
10
22.759019
20
70.7332186
40
3.0451207
50
103.0733153
51
109.6639071
0
ARC
8
0
10
22.8511747
20
70.3377892
40
3.4511465
50
97.4753652
51
103.0786597
0
ARC
8
0
10
22.917267
20
69.8377433
40
3.9555411
50
92.671939
51
97.4822402
0
ARC
8
0
10
22.9427359
20
69.3511457
40
4.4427978
50
89.9793733
51
92.707499
0
ARC
8
0
10
56.435173
20
68.7369847
40
5.0569606
50
86.1380491
51
90.0511049
0
ARC
8
0
10
56.4845296
20
69.4634425
40
4.3288282
50
81.7679717
51
86.1422259
0
ARC
8
0
10
56.5734368
20
70.0728997
40
3.7129208
50
76.5641217
51
81.7792019
0
ARC
8
0
10
56.6910359
20
70.5644672
40
3.2074823
50
70.6739422
51
76.5670035
0
ARC
8
0
10
56.8222449
20
70.9373724
40
2.8121674
50
63.5759816
51
70.6821899
0
ARC
8
0
10
56.9476818
20
71.1902417
40
2.5298957
50
55.2086722
51
63.5715058
0
ARC
8
0
10
57.0289528
20
71.3090291
40
2.3859711
50
45.4331225
51
55.1837906
0
ARC
8
0
10
57.0051656
20
71.2880926
40
2.4175806
50
34.9179026
51
45.3796858
0
ARC
8
0
10
56.8085832
20
71.1537497
40
2.6556721
50
24.7899648
51
34.866842
0
ARC
8
0
10
56.6085157
20
71.0553557
40
2.8785647
50
23.61741
51
24.8982486
0
ARC
8
0
10
56.4106513
20
70.9728251
40
3.0929224
50
16.948731
51
23.5497562
0
ARC
8
0
10
56.0531255
20
70.8624541
40
3.4670945
50
12.0085228
51
16.971085
0
ARC
8
0
10
55.7431433
20
70.7953657
40
3.7842517
50
8.3505193
51
12.0255753
0
ARC
8
0
10
55.5105268
20
70.760601
40
4.0194511
50
5.4940072
51
8.3592658
0
ARC
8
0
10
55.3538965
20
70.7451095
40
4.176845
50
3.5063084
51
5.4998274
0
ARC
8
0
10
55.210598
20
70.7363894
40
4.3204084
50
1.7911812
51
3.505511
0
ARC
8
0
10
54.8458015
20
70.725529
40
4.6853661
50
0.5466847
51
1.7844883
0
ARC
8
0
10
52.193779
20
70.7039667
40
7.3374744
50
359.9328281
51
0.5174611
0
LINE
8
0
10
59.5312483
20
70.6953645
11
59.5312483
21
70.6933574
0
ARC
8
0
10
54.4345359
20
1.2356593
40
5.0967145
50
356.1482149
51
0.0514314
0
ARC
8
0
10
55.1729622
20
1.1856148
40
4.3565945
50
351.7851433
51
356.1525176
0
ARC
8
0
10
55.7929616
20
1.095354
40
3.7300599
50
346.5834491
51
351.7965971
0
ARC
8
0
10
56.2930538
20
0.975881
40
3.2158946
50
340.6880084
51
346.5865953
0
ARC
8
0
10
56.6729857
20
0.8422943
40
2.8131621
50
333.5730152
51
340.6966034
0
ARC
8
0
10
56.9313264
20
0.7141081
40
2.5247672
50
325.1723138
51
333.5688108
0
ARC
8
0
10
57.0540064
20
0.6300124
40
2.3760348
50
315.3437475
51
325.14743
0
ARC
8
0
10
57.0353391
20
0.6516646
40
2.4045329
50
304.7627164
51
315.2893797
0
ARC
8
0
10
56.901945
20
0.8481039
40
2.6419715
50
294.5738722
51
304.710243
0
ARC
8
0
10
56.8038746
20
1.0493454
40
2.8657752
50
293.396148
51
294.6837995
0
ARC
8
0
10
56.71897
20
1.2555511
40
3.0887439
50
286.4969101
51
293.3227344
0
ARC
8
0
10
56.6081409
20
1.6235663
40
3.4730816
50
281.6812438
51
286.5260094
0
ARC
8
0
10
56.5412007
20
1.9425599
40
3.799022
50
277.9783762
51
281.6958472
0
ARC
8
0
10
56.50531
20
2.1939473
40
4.0529577
50
275.1489834
51
277.9875771
0
ARC
8
0
10
56.4884723
20
2.3757359
40
4.2355239
50
273.2713893
51
275.1551385
0
ARC
8
0
10
56.4773675
20
2.5735401
40
4.4336395
50
271.5582716
51
273.2687904
0
ARC
8
0
10
56.4638432
20
3.0862749
40
4.9465524
50
270.4642826
51
271.553363
0
ARC
8
0
10
56.4403222
20
6.4916829
40
8.3520401
50
269.9337338
51
270.4363321
0
ARC
8
0
10
22.9398248
20
3.1965939
40
5.0569474
50
266.1380444
51
270.051105
0
ARC
8
0
10
22.8904682
20
2.4701379
40
4.3288169
50
261.7679614
51
266.1422215
0
ARC
8
0
10
22.8015611
20
1.8606828
40
3.7129116
50
256.5641053
51
261.7791926
0
ARC
8
0
10
22.6839683
20
1.3691398
40
3.2074984
50
250.6739508
51
256.5669769
0
ARC
8
0
10
22.5527535
20
0.9962133
40
2.8121615
50
243.5759512
51
250.6821691
0
ARC
8
0
10
22.4273172
20
0.7433486
40
2.5298944
50
235.2086721
51
243.5715057
0
ARC
8
0
10
22.3460591
20
0.6245782
40
2.3859911
50
225.4331858
51
235.1837689
0
ARC
8
0
10
22.3698211
20
0.6454886
40
2.4175642
50
214.9178856
51
225.379738
0
ARC
8
0
10
22.5664338
20
0.7798537
40
2.6556934
50
204.7900523
51
214.8668469
0
ARC
8
0
10
22.7664832
20
0.8782349
40
2.8785641
50
203.61741
51
204.8982486
0
ARC
8
0
10
22.9643112
20
0.9607552
40
3.0928844
50
196.9487269
51
203.549852
0
ARC
8
0
10
23.3218648
20
1.0711386
40
3.4670868
50
192.0085574
51
196.9711429
0
ARC
8
0
10
23.6319068
20
1.1382417
40
3.7843056
50
188.3506259
51
192.0256367
0
ARC
8
0
10
23.8645166
20
1.1729968
40
4.0194967
50
185.4940145
51
188.3592437
0
ARC
8
0
10
24.0211017
20
1.1884834
40
4.1768452
50
183.5063086
51
185.4998276
0
ARC
8
0
10
24.164384
20
1.1972033
40
4.3203926
50
181.7911876
51
183.5055212
0
ARC
8
0
10
24.5291643
20
1.2080633
40
4.6853341
50
180.5466876
51
181.784495
0
ARC
8
0
10
27.1811375
20
1.2296252
40
7.3373932
50
179.9328286
51
180.5174636
0
LINE
8
0
10
19.8437495
20
1.2382273
11
19.8437494
21
1.2402343
0
LINE
8
DEFAULT_255_2_778
10
22.9443353
20
73.7939433
11
56.4306625
21
73.7939433
0
LINE
8
DEFAULT_255_2_778
10
59.5312483
20
70.6933574
11
59.5312483
21
1.2402343
0
LINE
8
DEFAULT_255_2_778
10
56.4306625
20
-1.8603515
11
22.9443353
21
-1.8603515
0
LINE
8
DEFAULT_255_2_778
10
19.8437494
20
1.2402343
11
19.8437494
21
70.6933574
0
LINE
8
DEFAULT_255_2_778
10
19.8437494
20
59.031422
11
59.2211898
21
58.9111199
0
LINE
8
DEFAULT_255_2_778
10
59.5312483
20
13.0224493
11
19.8437494
21
13.0224493
0
ARC
8
0
10
27.2842935
20
66.3558546
40
3.7215665
50
359.949131
51
16.4492935
0
ARC
8
0
10
27.284209
20
66.3500338
40
3.7233
50
16.5348324
51
49.4893441
0
ARC
8
0
10
27.2887746
20
66.3634054
40
3.7101717
50
49.4088106
51
76.0318669
0
ARC
8
0
10
27.2877717
20
66.3442483
40
3.7290061
50
76.0879628
51
90.0401973
0
ARC
8
0
10
27.2818504
20
66.3516943
40
3.7215606
50
89.9491155
51
106.4492841
0
ARC
8
0
10
27.2876738
20
66.3516011
40
3.7233031
50
106.5348232
51
139.4892981
0
ARC
8
0
10
27.2743003
20
66.3561701
40
3.7101713
50
139.408786
51
166.0318562
0
ARC
8
0
10
27.2934782
20
66.3551644
40
3.7290267
50
166.0879873
51
180.0401628
0
ARC
8
0
10
27.2860175
20
66.3492465
40
3.7215665
50
179.9491334
51
196.4492929
0
ARC
8
0
10
27.2861027
20
66.355068
40
3.723301
50
196.5348393
51
229.4893421
0
ARC
8
0
10
27.2815364
20
66.3416957
40
3.7101718
50
229.4088105
51
256.0318667
0
ARC
8
0
10
27.2825393
20
66.3608527
40
3.7290061
50
256.0879627
51
270.0401973
0
ARC
8
0
10
27.2884586
20
66.3534159
40
3.7215699
50
269.9491471
51
286.4492738
0
ARC
8
0
10
27.2826379
20
66.3534983
40
3.7233015
50
286.5348193
51
319.4893101
0
ARC
8
0
10
27.2960107
20
66.348931
40
3.7101712
50
319.4087858
51
346.0318559
0
ARC
8
0
10
27.2768335
20
66.3499365
40
3.729026
50
346.0879871
51
0.0401627
0
LINE
8
DEFAULT_255_2_778
10
25.7348626
20
68.212892
11
28.8354484
21
64.8022476
0
LINE
8
DEFAULT_255_2_778
10
28.8354583
20
68.212892
11
25.4248139
21
64.8022476
0
ARC
8
0
10
52.0889616
20
66.3558546
40
3.7215852
50
359.9491311
51
16.4492088
0
ARC
8
0
10
52.0889015
20
66.3500406
40
3.7232932
50
16.534754
51
49.4893039
0
ARC
8
0
10
52.0934685
20
66.3634116
40
3.7101646
50
49.408792
51
76.0319099
0
ARC
8
0
10
52.092459
20
66.3442316
40
3.7290228
50
76.0879932
51
90.0402057
0
ARC
8
0
10
52.0865364
20
66.35168
40
3.7215749
50
89.9491041
51
106.4492536
0
ARC
8
0
10
52.0923525
20
66.3516096
40
3.7232935
50
106.5347837
51
139.4893428
0
ARC
8
0
10
52.0789868
20
66.3561741
40
3.7101704
50
139.4088563
51
166.0319167
0
ARC
8
0
10
52.0981649
20
66.355166
40
3.7290266
50
166.0880128
51
180.0401878
0
ARC
8
0
10
52.0907231
20
66.3492465
40
3.7215852
50
179.9491335
51
196.4492083
0
ARC
8
0
10
52.0907839
20
66.3550612
40
3.7232942
50
196.5347609
51
229.4893019
0
ARC
8
0
10
52.0862162
20
66.3416895
40
3.7101646
50
229.4087918
51
256.0319097
0
ARC
8
0
10
52.0872256
20
66.3608693
40
3.7290228
50
256.0879932
51
270.0402057
0
ARC
8
0
10
52.0931461
20
66.3534302
40
3.7215843
50
269.9491357
51
286.4492433
0
ARC
8
0
10
52.0873328
20
66.3534899
40
3.7232919
50
286.5347799
51
319.4893548
0
ARC
8
0
10
52.1006979
20
66.3489269
40
3.7101703
50
319.4088561
51
346.0319164
0
ARC
8
0
10
52.0815204
20
66.3499349
40
3.7290259
50
346.0880127
51
0.0401876
0
LINE
8
DEFAULT_255_2_778
10
50.5395494
20
68.212892
11
53.6401352
21
64.8022476
0
LINE
8
DEFAULT_255_2_778
10
53.6401451
20
68.212892
11
50.2295007
21
64.8022476
0
ARC
8
0
10
39.6866182
20
66.3558546
40
3.7215852
50
359.9491311
51
16.4492088
0
ARC
8
0
10
39.6865581
20
66.3500406
40
3.7232932
50
16.534754
51
49.4893039
0
ARC
8
0
10
39.6911251
20
66.3634116
40
3.7101646
50
49.408792
51
76.0319099
0
ARC
8
0
10
39.6901156
20
66.3442316
40
3.7290228
50
76.0879932
51
90.0402057
0
ARC
8
0
10
39.6841938
20
66.3516943
40
3.7215606
50
89.9491155
51
106.4492841
0
ARC
8
0
10
39.6900172
20
66.3516011
40
3.7233031
50
106.5348232
51
139.4892981
0
ARC
8
0
10
39.6766437
20
66.3561701
40
3.7101713
50
139.408786
51
166.0318562
0
ARC
8
0
10
39.6958216
20
66.3551644
40
3.7290267
50
166.0879873
51
180.0401628
0
ARC
8
0
10
39.6883609
20
66.3492465
40
3.7215665
50
179.9491334
51
196.4492929
0
ARC
8
0
10
39.6884461
20
66.355068
40
3.723301
50
196.5348393
51
229.4893421
0
ARC
8
0
10
39.6838798
20
66.3416957
40
3.7101718
50
229.4088105
51
256.0318667
0
ARC
8
0
10
39.6848827
20
66.3608527
40
3.7290061
50
256.0879627
51
270.0401973
0
ARC
8
0
10
39.6908027
20
66.3534302
40
3.7215843
50
269.9491357
51
286.4492433
0
ARC
8
0
10
39.6849894
20
66.3534899
40
3.7232919
50
286.5347799
51
319.4893548
0
ARC
8
0
10
39.6983545
20
66.3489269
40
3.7101703
50
319.4088561
51
346.0319164
0
ARC
8
0
10
39.679177
20
66.3499349
40
3.7290259
50
346.0880127
51
0.0401876
0
LINE
8
DEFAULT_255_2_778
10
38.137206
20
68.212892
11
41.2377918
21
64.8022476
0
LINE
8
DEFAULT_255_2_778
10
41.2378017
20
68.212892
11
37.8271573
21
64.8022476
0
ARC
8
0
10
27.2843072
20
5.5843447
40
3.7215527
50
359.9491422
51
16.4493238
0
ARC
8
0
10
27.2842006
20
5.5785167
40
3.7233096
50
16.5348715
51
49.4892993
0
ARC
8
0
10
27.2887695
20
5.5918932
40
3.7101755
50
49.4087569
51
76.0318009
0
ARC
8
0
10
27.28777
20
5.572739
40
3.7290062
50
76.0879373
51
90.0401723
0
ARC
8
0
10
27.2818511
20
5.5801944
40
3.7215514
50
89.9491261
51
106.4493373
0
ARC
8
0
10
27.287679
20
5.5800882
40
3.7233076
50
106.5348872
51
139.489343
0
ARC
8
0
10
27.2743056
20
5.5846548
40
3.7101772
50
139.4088027
51
166.0318203
0
ARC
8
0
10
27.2934614
20
5.5836548
40
3.7290099
50
166.0879562
51
180.0401568
0
ARC
8
0
10
27.2860202
20
5.5777373
40
3.7215692
50
179.9491332
51
196.4492864
0
ARC
8
0
10
27.2861019
20
5.5835578
40
3.7233
50
196.5348321
51
229.4893439
0
ARC
8
0
10
27.2815374
20
5.5701891
40
3.7101746
50
229.4088272
51
256.0318614
0
ARC
8
0
10
27.2825393
20
5.5893435
40
3.7290061
50
256.0879628
51
270.0401973
0
ARC
8
0
10
27.2884599
20
5.5819069
40
3.7215701
50
269.9491262
51
286.4492527
0
ARC
8
0
10
27.2826388
20
5.5819887
40
3.7233008
50
286.5348088
51
319.4893028
0
ARC
8
0
10
27.2960117
20
5.5774208
40
3.7101701
50
319.408784
51
346.0318633
0
ARC
8
0
10
27.2768329
20
5.5784272
40
3.7290265
50
346.0879866
51
0.0401652
0
LINE
8
DEFAULT_255_2_778
10
25.7348626
20
7.4414094
11
28.8354484
21
4.0307649
0
LINE
8
DEFAULT_255_2_778
10
28.8354583
20
7.4414094
11
25.4248139
21
4.0307649
0
ARC
8
0
10
52.0889753
20
5.5843447
40
3.7215715
50
359.9491423
51
16.4492392
0
ARC
8
0
10
52.0888931
20
5.5785235
40
3.7233028
50
16.5347931
51
49.489259
0
ARC
8
0
10
52.0934634
20
5.5918994
40
3.7101683
50
49.4087382
51
76.0318439
0
ARC
8
0
10
52.0924574
20
5.5727224
40
3.7290228
50
76.0879677
51
90.0401807
0
ARC
8
0
10
52.0865371
20
5.5801801
40
3.7215657
50
89.9491147
51
106.4493068
0
ARC
8
0
10
52.0923578
20
5.5800967
40
3.7232981
50
106.5348477
51
139.4893876
0
ARC
8
0
10
52.078992
20
5.5846588
40
3.7101764
50
139.408873
51
166.0318809
0
ARC
8
0
10
52.0981481
20
5.5836565
40
3.7290098
50
166.0879817
51
180.0401818
0
ARC
8
0
10
52.0907257
20
5.5777373
40
3.7215879
50
179.9491332
51
196.4492018
0
ARC
8
0
10
52.0907831
20
5.583551
40
3.7232932
50
196.5347537
51
229.4893037
0
ARC
8
0
10
52.0862172
20
5.5701828
40
3.7101674
50
229.4088085
51
256.0319045
0
ARC
8
0
10
52.0872256
20
5.5893601
40
3.7290228
50
256.0879933
51
270.0402057
0
ARC
8
0
10
52.0931475
20
5.5819213
40
3.7215844
50
269.9491148
51
286.4492222
0
ARC
8
0
10
52.0873337
20
5.5819803
40
3.7232913
50
286.5347693
51
319.4893474
0
ARC
8
0
10
52.1006989
20
5.5774167
40
3.7101692
50
319.4088543
51
346.0319239
0
ARC
8
0
10
52.0815199
20
5.5784256
40
3.7290265
50
346.0880122
51
0.0401902
0
LINE
8
DEFAULT_255_2_778
10
50.5395494
20
7.4414094
11
53.6401352
21
4.0307649
0
LINE
8
DEFAULT_255_2_778
10
53.6401451
20
7.4414094
11
50.2295007
21
4.0307649
0
ARC
8
0
10
39.6866319
20
5.5843447
40
3.7215715
50
359.9491423
51
16.4492392
0
ARC
8
0
10
39.6865497
20
5.5785235
40
3.7233028
50
16.5347931
51
49.489259
0
ARC
8
0
10
39.69112
20
5.5918994
40
3.7101683
50
49.4087382
51
76.0318439
0
ARC
8
0
10
39.690114
20
5.5727224
40
3.7290228
50
76.0879677
51
90.0401807
0
ARC
8
0
10
39.6841945
20
5.5801944
40
3.7215514
50
89.9491261
51
106.4493373
0
ARC
8
0
10
39.6900224
20
5.5800882
40
3.7233076
50
106.5348872
51
139.489343
0
ARC
8
0
10
39.676649
20
5.5846548
40
3.7101772
50
139.4088027
51
166.0318203
0
ARC
8
0
10
39.6958048
20
5.5836548
40
3.7290099
50
166.0879562
51
180.0401568
0
ARC
8
0
10
39.6883636
20
5.5777373
40
3.7215692
50
179.9491332
51
196.4492864
0
ARC
8
0
10
39.6884454
20
5.5835578
40
3.7233
50
196.5348321
51
229.4893439
0
ARC
8
0
10
39.6838808
20
5.5701891
40
3.7101746
50
229.4088272
51
256.0318614
0
ARC
8
0
10
39.6848827
20
5.5893435
40
3.7290061
50
256.0879628
51
270.0401973
0
ARC
8
0
10
39.6908041
20
5.5819213
40
3.7215844
50
269.9491148
51
286.4492222
0
ARC
8
0
10
39.6849903
20
5.5819803
40
3.7232913
50
286.5347693
51
319.4893474
0
ARC
8
0
10
39.6983554
20
5.5774167
40
3.7101692
50
319.4088543
51
346.0319239
0
ARC
8
0
10
39.6791765
20
5.5784256
40
3.7290265
50
346.0880122
51
0.0401902
0
LINE
8
DEFAULT_255_2_778
10
38.137206
20
7.4414094
11
41.2377918
21
4.0307649
0
ARC
8
0
10
28.0251743
20
50.8602965
40
4.220921
50
359.9389009
51
359.9999974
0
ARC
8
0
10
27.9093405
20
50.8611889
40
4.3367547
50
359.9882079
51
22.3617616
0
ARC
8
0
10
27.9055323
20
50.8605004
40
4.3405385
50
22.3510411
51
55.2506475
0
ARC
8
0
10
27.9009
20
50.8525484
40
4.3497129
50
55.2602155
51
59.7177252
0
ARC
8
0
10
27.9430241
20
50.9127201
40
4.2765142
50
59.7985702
51
73.8523619
0
ARC
8
0
10
27.9427427
20
50.9095554
40
4.2796323
50
73.8605261
51
90.0034357
0
ARC
8
0
10
27.9419658
20
50.9118149
40
4.2773728
50
89.993127
51
111.5663427
0
ARC
8
0
10
27.9441104
20
50.9083222
40
4.2814094
50
111.5758517
51
120.1969808
0
ARC
8
0
10
27.9680691
20
50.8582702
40
4.3367222
50
120.1379595
51
142.2152339
0
ARC
8
0
10
27.9707032
20
50.8552692
40
4.3406427
50
142.2052311
51
175.4826188
0
ARC
8
0
10
27.9797391
20
50.8553081
40
4.3496475
50
175.4925041
51
180.0017435
0
ARC
8
0
10
27.9667939
20
50.8542618
40
4.3367023
50
179.9879258
51
202.065288
0
ARC
8
0
10
27.9707196
20
50.8550329
40
4.3406303
50
202.0552543
51
235.332688
0
ARC
8
0
10
27.975193
20
50.8628319
40
4.3495894
50
235.3426584
51
239.8519337
0
ARC
8
0
10
27.9419334
20
50.7976097
40
4.2764875
50
239.7983915
51
253.852314
0
ARC
8
0
10
27.9422166
20
50.8007863
40
4.2796175
50
253.8604993
51
270.0035119
0
ARC
8
0
10
27.9429921
20
50.7985234
40
4.2773546
50
269.993221
51
291.566476
0
ARC
8
0
10
27.9408393
20
50.8020381
40
4.2814147
50
291.5759803
51
300.1970884
0
ARC
8
0
10
27.9081103
20
50.8469993
40
4.3367404
50
300.2720422
51
322.5317687
0
ARC
8
0
10
27.9055081
20
50.8499778
40
4.3406178
50
322.5214587
51
355.5209247
0
ARC
8
0
10
27.896549
20
50.849933
40
4.3495461
50
355.5307289
51
0.0016348
0
ARC
8
0
10
28.0251908
20
50.8500569
40
4.2209044
50
0.0000026
51
0.0610991
0
ARC
8
0
10
40.4702339
20
19.7656848
40
3.0225404
50
269.8561501
51
313.9328538
0
ARC
8
0
10
40.4912747
20
19.6339089
40
2.9140415
50
315.4327525
51
356.9771892
0
ARC
8
0
10
40.2653737
20
19.6889919
40
3.1428282
50
356.1915357
51
359.9948696
0
ARC
8
0
10
40.5029162
20
22.475873
40
2.9052877
50
0.066357
51
22.0851865
0
ARC
8
0
10
40.4570947
20
22.4560438
40
2.9552027
50
22.1074066
51
72.8411485
0
ARC
8
0
10
40.4661411
20
22.4580004
40
2.9506754
50
72.9977838
51
90.0678805
0
ARC
8
0
10
26.5374446
20
22.3513587
40
3.057317
50
89.9330906
51
107.7653451
0
ARC
8
0
10
26.5162815
20
22.416965
40
2.9883819
50
107.7627339
51
136.6515038
0
ARC
8
0
10
26.4083199
20
22.5112446
40
2.8451619
50
136.5397549
51
170.6909956
0
ARC
8
0
10
26.3943432
20
22.5204214
40
2.829893
50
170.8285728
51
179.9299466
0
ARC
8
0
10
26.4169614
20
19.6430377
40
2.8525228
50
180.1787317
51
226.0252446
0
ARC
8
0
10
26.5299044
20
19.758175
40
3.0138023
50
225.999877
51
269.999656
0
ARC
8
0
10
26.5298307
20
19.7803629
40
3.03599
50
270.0010491
51
270.2110697
0
LINE
8
DEFAULT_255_2_778
10
41.2377918
20
7.4413964
11
37.8271474
21
4.030752
0
LINE
8
DEFAULT_255_2_778
10
26.5410149
20
16.7431539
11
40.4626454
21
16.7431539
0
LINE
8
DEFAULT_255_2_778
10
43.4082019
20
19.6887105
11
43.4082019
21
22.4792378
0
LINE
8
DEFAULT_255_2_778
10
40.4626454
20
25.4086737
11
26.5410149
21
25.4086737
0
LINE
8
DEFAULT_255_2_778
10
23.5644525
20
22.5238814
11
23.5644525
21
19.6341394
0
LINE
8
DEFAULT_255_2_778
10
45.8886706
20
47.7502499
11
45.8886706
21
39.0686115
0
ARC
8
0
10
52.8725631
20
42.0899395
40
3.0225757
50
269.856421
51
313.9325828
0
ARC
8
0
10
52.8936181
20
41.9581282
40
2.9140415
50
315.4327525
51
356.9771892
0
ARC
8
0
10
52.6677171
20
42.0132112
40
3.1428282
50
356.1915357
51
359.9948696
0
ARC
8
0
10
52.9052635
20
44.800092
40
2.9052837
50
0.0663638
51
22.0852012
0
ARC
8
0
10
52.8594381
20
44.7802604
40
2.9552033
50
22.107435
51
72.8411521
0
ARC
8
0
10
52.8684845
20
44.7822177
40
2.9506754
50
72.9977838
51
90.0678805
0
ARC
8
0
10
38.9397893
20
44.6755652
40
3.0573279
50
89.9331151
51
107.7652898
0
ARC
8
0
10
38.9186245
20
44.7411799
40
2.9883843
50
107.7626957
51
136.6514242
0
ARC
8
0
10
38.8106561
20
44.8354664
40
2.8451545
50
136.5396779
51
170.6909828
0
ARC
8
0
10
38.7966873
20
44.8446425
40
2.8298936
50
170.828574
51
179.9299437
0
ARC
8
0
10
38.818285
20
41.9668279
40
2.8515017
50
180.1701327
51
226.0339778
0
ARC
8
0
10
38.9304598
20
42.0779768
40
3.0093787
50
225.9659143
51
270.1539086
0
ARC
8
0
10
38.9384097
20
42.2884371
40
3.2198282
50
270.0023839
51
270.0880594
0
LINE
8
DEFAULT_255_2_778
10
38.9433583
20
39.0673733
11
52.8649888
21
39.0673733
0
LINE
8
DEFAULT_255_2_778
10
55.8105453
20
42.0129298
11
55.8105453
21
44.8034571
0
LINE
8
DEFAULT_255_2_778
10
52.8649888
20
47.732891
11
38.9433583
21
47.732891
0
LINE
8
DEFAULT_255_2_778
10
35.9667959
20
44.8481027
11
35.9667959
21
41.9583607
0
ENDSEC
0
EOF