0
SECTION
2
HEADER
0
ENDSEC
0
SECTION
2
TABLES
0
TABLE
2
LTYPE
0
LTYPE
72
65
70
64
2
CONTINUOUS
3
______
73
0
40
0
0
ENDTAB
0
TABLE
2
LAYER
0
LAYER
2
DEFAULT_255_2_778
70
0
62
255
6
CONTINUOUS
0
ENDTAB
0
ENDSEC
0
SECTION
2
ENTITIES
0
ARC
8
0
10
15.5460656
20
9.30492
40
3.5651102
50
270.0143335
51
285.3448482
0
ARC
8
0
10
15.5887863
20
9.1551151
40
3.4093411
50
285.3187139
51
304.8189396
0
ARC
8
0
10
15.841875
20
8.8500784
40
3.0145956
50
304.1802355
51
350.1005152
0
ARC
8
0
10
16.0099364
20
8.7878328
40
2.8385203
50
350.7550441
51
0.0167254
0
ARC
8
0
10
16.0256536
20
8.7886612
40
2.8228029
50
0.0000035
51
0.0431357
0
ARC
8
0
10
16.0202165
20
8.7895222
40
2.8282395
50
0.0256115
51
23.2121046
0
ARC
8
0
10
15.7634802
20
8.6579572
40
3.1161106
50
23.5748091
51
56.1939247
0
ARC
8
0
10
15.574283
20
8.4083119
40
3.4288624
50
55.8879621
51
75.4768821
0
ARC
8
0
10
15.5401651
20
8.2842121
40
3.5575532
50
75.4461668
51
89.8906053
0
ARC
8
0
10
8.927783
20
8.3047674
40
3.5369935
50
89.9390305
51
115.4182773
0
ARC
8
0
10
8.8345936
20
8.5027597
40
3.3181683
50
115.4323407
51
132.5096047
0
ARC
8
0
10
8.6408462
20
8.7105728
40
3.0340591
50
132.4642555
51
154.2557038
0
ARC
8
0
10
8.484034
20
8.7885137
40
2.8589586
50
154.2976348
51
179.9544526
0
ARC
8
0
10
8.5315502
20
8.8031911
40
2.9065004
50
180.2445332
51
221.6570273
0
ARC
8
0
10
8.7387318
20
8.9568616
40
3.1635165
50
221.2423714
51
227.2777948
0
ARC
8
0
10
8.8872121
20
9.152196
40
3.4078356
50
227.6719313
51
261.8409361
0
ARC
8
0
10
8.9313271
20
9.3261343
40
3.5863244
50
261.5376613
51
270.0035089
0
ARC
8
0
10
13.232716
20
24.1595856
40
3.5369656
50
269.9390542
51
295.4185155
0
ARC
8
0
10
13.3258936
20
23.9616244
40
3.3181736
50
295.4325473
51
312.5098296
0
ARC
8
0
10
13.5174454
20
23.7559026
40
3.0370895
50
312.4684209
51
334.0560745
0
ARC
8
0
10
13.6822888
20
23.6742499
40
2.8531366
50
334.0823093
51
359.9371398
0
ARC
8
0
10
13.6342959
20
23.6582162
40
2.9011565
50
0.2548354
51
40.93737
0
ARC
8
0
10
13.44019
20
23.5173629
40
3.1401498
50
40.5582034
51
47.3415502
0
ARC
8
0
10
13.2703083
20
23.2999987
40
3.4151903
50
47.7166759
51
81.468691
0
ARC
8
0
10
13.2290838
20
23.1432517
40
3.5763615
50
81.1880872
51
90.0020843
0
ARC
8
0
10
9.9174946
20
23.1826155
40
3.5369997
50
89.9391447
51
115.4183223
0
ARC
8
0
10
9.8243123
20
23.3805782
40
3.3182043
50
115.4322785
51
132.5093652
0
ARC
8
0
10
9.6327323
20
23.5863741
40
3.0370464
50
132.4684664
51
154.0564478
0
ARC
8
0
10
9.4679534
20
23.6679901
40
2.8531677
50
154.0826087
51
179.9371534
0
ARC
8
0
10
9.5158976
20
23.6840107
40
2.9011389
50
180.2545923
51
220.9373247
0
ARC
8
0
10
9.7099187
20
23.8248086
40
3.1400317
50
220.5583968
51
227.3419539
0
ARC
8
0
10
9.8799178
20
24.0422605
40
3.4152163
50
227.7165933
51
261.4683979
0
ARC
8
0
10
9.9211251
20
24.1989503
40
3.5763282
50
261.1879416
51
270.0020221
0
ARC
8
0
10
55.5656337
20
24.1595942
40
3.5369742
50
269.9391123
51
295.4184837
0
ARC
8
0
10
55.6588199
20
23.9616218
40
3.3181684
50
295.4324633
51
312.509797
0
ARC
8
0
10
55.8503622
20
23.7559089
40
3.0370973
50
312.4684037
51
334.056012
0
ARC
8
0
10
56.0152186
20
23.6742509
40
2.8531302
50
334.082225
51
359.9371194
0
ARC
8
0
10
55.9672188
20
23.6582139
40
2.901157
50
0.25488
51
40.937422
0
ARC
8
0
10
55.7730812
20
23.517332
40
3.1401929
50
40.5582718
51
47.341527
0
ARC
8
0
10
55.6032284
20
23.2999957
40
3.4151934
50
47.7166944
51
81.4686841
0
ARC
8
0
10
55.5620051
20
23.1432568
40
3.5763563
50
81.1880804
51
90.0020839
0
ARC
8
0
10
52.2550777
20
23.1539363
40
3.565677
50
90.014623
51
105.3426975
0
ARC
8
0
10
52.2127085
20
23.302593
40
3.4111081
50
105.3170685
51
124.739565
0
ARC
8
0
10
52.0123045
20
23.5604741
40
3.0850454
50
124.4102932
51
158.4924766
0
ARC
8
0
10
51.7776695
20
23.6745155
40
2.8250091
50
158.8996938
51
180.0260442
0
ARC
8
0
10
51.7404728
20
23.6732316
40
2.7878122
50
180.0000035
51
180.0434053
0
ARC
8
0
10
51.778226
20
23.6728283
40
2.8255652
50
180.0346481
51
203.6992158
0
ARC
8
0
10
52.0402327
20
23.8079807
40
3.1198532
50
204.0379578
51
236.1447269
0
ARC
8
0
10
52.2234164
20
24.0496469
40
3.4226401
50
235.8518901
51
255.4937635
0
ARC
8
0
10
52.2561049
20
24.1689438
40
3.5463223
50
255.4652594
51
269.9687003
0
ARC
8
0
10
69.4553033
20
24.1883293
40
3.5657074
50
270.0146319
51
285.3425725
0
ARC
8
0
10
69.497677
20
24.0396479
40
3.4111134
50
285.3169751
51
304.7394011
0
ARC
8
0
10
69.6980963
20
23.7817419
40
3.0850216
50
304.4101372
51
338.4924435
0
ARC
8
0
10
69.9327247
20
23.6677028
40
2.8249925
50
338.8996667
51
0.0260604
0
ARC
8
0
10
69.9168778
20
23.6689877
40
2.8408391
50
4e-7
51
0.0429991
0
ARC
8
0
10
69.9322112
20
23.6694368
40
2.8255054
50
0.0341255
51
23.6991267
0
ARC
8
0
10
69.6701666
20
23.5342644
40
3.1198362
50
24.0379363
51
56.144878
0
ARC
8
0
10
69.486962
20
23.2925723
40
3.4226561
50
55.8519797
51
75.4937904
0
ARC
8
0
10
69.4542782
20
23.173301
40
3.5463125
50
75.465254
51
89.9687254
0
ARC
8
0
10
66.1447619
20
23.1826155
40
3.5369997
50
89.9391447
51
115.4183223
0
ARC
8
0
10
66.0515796
20
23.3805782
40
3.3182043
50
115.4322785
51
132.5093652
0
ARC
8
0
10
65.8600286
20
23.5863411
40
3.0370904
50
132.4684503
51
154.0561574
0
ARC
8
0
10
65.6951906
20
23.6679856
40
2.8531459
50
154.0822964
51
179.9370634
0
ARC
8
0
10
65.7431561
20
23.6840193
40
2.9011382
50
180.2547612
51
220.9375602
0
ARC
8
0
10
65.9372473
20
23.8248713
40
3.1401194
50
220.5585334
51
227.3419072
0
ARC
8
0
10
66.1071863
20
24.0422635
40
3.4152194
50
227.7166118
51
261.468391
0
ARC
8
0
10
66.1483924
20
24.1989451
40
3.576323
50
261.1879347
51
270.0020216
0
ARC
8
0
10
33.7399936
20
9.2767614
40
3.5369535
50
269.9390893
51
295.4185226
0
ARC
8
0
10
33.8331562
20
9.0788367
40
3.3182008
50
295.4325188
51
312.5096146
0
ARC
8
0
10
34.0269182
20
8.8710082
40
3.0340704
50
312.4642601
51
334.2556345
0
ARC
8
0
10
34.183739
20
8.793061
40
2.8589593
50
334.2976006
51
359.9544157
0
ARC
8
0
10
34.1377181
20
8.7783413
40
2.905006
50
0.2454565
51
41.2885318
0
ARC
8
0
10
33.9153936
20
8.6147544
40
3.1800918
50
40.8600367
51
47.2188697
0
ARC
8
0
10
33.7600232
20
8.3940444
40
3.4477967
50
47.8149961
51
89.9995139
0
ARC
8
0
10
33.7600854
20
8.3812562
40
3.4605849
50
90.000546
51
90.394911
0
ARC
8
0
10
27.1170592
20
8.3047673
40
3.5369936
50
89.9390341
51
115.4182777
0
ARC
8
0
10
27.0238672
20
8.5027629
40
3.3181643
50
115.4323233
51
132.5096102
0
ARC
8
0
10
26.8300979
20
8.7105993
40
3.0340231
50
132.4642543
51
154.2559301
0
ARC
8
0
10
26.6733435
20
8.788515
40
2.8589856
50
154.297924
51
179.9544795
0
ARC
8
0
10
26.7208332
20
8.8031842
40
2.9065008
50
180.2443984
51
221.6568391
0
ARC
8
0
10
26.9280061
20
8.956856
40
3.1635113
50
221.2423196
51
227.2777491
0
ARC
8
0
10
27.0764875
20
9.1521945
40
3.4078341
50
227.6719222
51
261.8409395
0
ARC
8
0
10
27.1206031
20
9.3261357
40
3.5863257
50
261.5376615
51
270.0035091
0
ARC
8
0
10
27.1233458
20
24.1595626
40
3.5369426
50
269.9390837
51
295.4185997
0
ARC
8
0
10
27.2165109
20
23.9616312
40
3.3181828
50
295.4326112
51
312.5098304
0
ARC
8
0
10
27.4080644
20
23.7559089
40
3.0370973
50
312.4684037
51
334.056012
0
ARC
8
0
10
27.5729208
20
23.6742509
40
2.8531302
50
334.082225
51
359.9371194
0
ARC
8
0
10
27.524921
20
23.6582139
40
2.901157
50
0.25488
51
40.937422
0
ARC
8
0
10
27.3307834
20
23.517332
40
3.1401929
50
40.5582718
51
47.341527
0
ARC
8
0
10
27.1609311
20
23.2999996
40
3.4151902
50
47.7166556
51
81.4686023
0
ARC
8
0
10
27.1197152
20
23.1432979
40
3.5763153
50
81.1880288
51
90.0020806
0
ARC
8
0
10
23.8081192
20
23.1826155
40
3.5369997
50
89.9391447
51
115.4183223
0
ARC
8
0
10
23.7149369
20
23.3805782
40
3.3182043
50
115.4322785
51
132.5093652
0
ARC
8
0
10
23.5233569
20
23.5863741
40
3.0370464
50
132.4684664
51
154.0564478
0
ARC
8
0
10
23.358578
20
23.6679901
40
2.8531677
50
154.0826087
51
179.9371534
0
ARC
8
0
10
23.4065222
20
23.6840107
40
2.9011389
50
180.2545923
51
220.9373247
0
ARC
8
0
10
23.6005433
20
23.8248086
40
3.1400317
50
220.5583968
51
227.3419539
0
ARC
8
0
10
23.7705419
20
24.0422593
40
3.415215
50
227.7165858
51
261.4683968
0
ARC
8
0
10
23.8117495
20
24.1989515
40
3.5763295
50
261.1879412
51
270.0020249
0
ARC
8
0
10
41.9689471
20
24.1595942
40
3.5369742
50
269.9391123
51
295.4184837
0
ARC
8
0
10
42.0621332
20
23.9616218
40
3.3181684
50
295.4324633
51
312.509797
0
ARC
8
0
10
42.2537336
20
23.755844
40
3.0370102
50
312.4684227
51
334.0565743
0
ARC
8
0
10
42.4184682
20
23.6742433
40
2.8531777
50
334.0828585
51
359.9372733
0
ARC
8
0
10
42.3705145
20
23.658231
40
2.9011584
50
0.2545421
51
40.936951
0
ARC
8
0
10
42.1764876
20
23.5174307
40
3.1400573
50
40.5580198
51
47.3415561
0
ARC
8
0
10
42.0065418
20
23.2999957
40
3.4151934
50
47.7166944
51
81.4686841
0
ARC
8
0
10
41.9653185
20
23.1432568
40
3.5763563
50
81.1880804
51
90.0020839
0
ARC
8
0
10
38.6537185
20
23.1826471
40
3.5369682
50
89.9391161
51
115.4184383
0
ARC
8
0
10
38.5605572
20
23.3805688
40
3.3182188
50
115.4324264
51
132.5093987
0
ARC
8
0
10
38.368995
20
23.5863411
40
3.0370904
50
132.4684503
51
154.0561574
0
ARC
8
0
10
38.2041571
20
23.6679856
40
2.8531459
50
154.0822964
51
179.9370634
0
ARC
8
0
10
38.2521225
20
23.6840193
40
2.9011382
50
180.2547612
51
220.9375602
0
ARC
8
0
10
38.4462137
20
23.8248713
40
3.1401194
50
220.5585334
51
227.3419072
0
ARC
8
0
10
38.6161541
20
24.0422639
40
3.4152206
50
227.716599
51
261.4683034
0
ARC
8
0
10
38.6573513
20
24.1988989
40
3.5762768
50
261.1878774
51
270.0020126
0
ARC
8
0
10
52.257926
20
9.276793
40
3.5369851
50
269.9391179
51
295.4184066
0
ARC
8
0
10
52.3511096
20
9.0788274
40
3.3181864
50
295.4323709
51
312.5095811
0
ARC
8
0
10
52.5448765
20
8.8709903
40
3.0340463
50
312.4642637
51
334.2557914
0
ARC
8
0
10
52.7016678
20
8.7930585
40
2.8589687
50
334.2977454
51
359.954465
0
ARC
8
0
10
52.655656
20
8.7783456
40
2.9050063
50
0.2453727
51
41.2884156
0
ARC
8
0
10
52.433337
20
8.6147593
40
3.1800875
50
40.8599874
51
47.2188263
0
ARC
8
0
10
52.2779665
20
8.3940474
40
3.4477938
50
47.8149767
51
89.9996626
0
ARC
8
0
10
52.2780197
20
8.381224
40
3.4606171
50
90.000546
51
90.394911
0
ARC
8
0
10
45.6399595
20
8.3047758
40
3.536985
50
89.938976
51
115.4183095
0
ARC
8
0
10
45.546776
20
8.5027603
40
3.3181694
50
115.4324074
51
132.5096428
0
ARC
8
0
10
45.3530178
20
8.7105825
40
3.0340463
50
132.4642637
51
154.2557914
0
ARC
8
0
10
45.1962265
20
8.7885143
40
2.8589687
50
154.2977454
51
179.954465
0
ARC
8
0
10
45.2437329
20
8.8031884
40
2.9065007
50
180.2444817
51
221.6569539
0
ARC
8
0
10
45.4508741
20
8.9568229
40
3.1634626
50
221.2422956
51
227.2778205
0
ARC
8
0
10
45.5993931
20
9.1521987
40
3.4078384
50
227.6719478
51
261.8409336
0
ARC
8
0
10
45.6435072
20
9.326129
40
3.5863191
50
261.537655
51
270.0035059
0
ARC
8
0
10
70.4534148
20
9.2767299
40
3.5369219
50
269.9390607
51
295.4186385
0
ARC
8
0
10
70.5465563
20
9.078846
40
3.3182152
50
295.4326667
51
312.509648
0
ARC
8
0
10
70.740317
20
8.8710228
40
3.0340896
50
312.4642478
51
334.255503
0
ARC
8
0
10
70.8971712
20
8.7930617
40
2.8589424
50
334.2974219
51
359.9544012
0
ARC
8
0
10
70.8511337
20
8.7783371
40
2.9050057
50
0.2455403
51
41.2886481
0
ARC
8
0
10
70.6287703
20
8.614719
40
3.1801412
50
40.8601085
51
47.2188452
0
ARC
8
0
10
70.4734423
20
8.3940645
40
3.4477766
50
47.8148676
51
89.9995128
0
ARC
8
0
10
70.4735046
20
8.381346
40
3.460495
50
90.000546
51
90.3949176
0
ARC
8
0
10
63.8304741
20
8.3047587
40
3.5370021
50
89.9390923
51
115.4182459
0
ARC
8
0
10
63.7372735
20
8.5027654
40
3.3181591
50
115.4322393
51
132.5095776
0
ARC
8
0
10
63.5434806
20
8.7106318
40
3.0339798
50
132.4642701
51
154.2562185
0
ARC
8
0
10
63.3867891
20
8.7885182
40
2.8590118
50
154.2982475
51
179.9545432
0
ARC
8
0
10
63.4342542
20
8.803176
40
2.9065024
50
180.2442364
51
221.6565962
0
ARC
8
0
10
63.6413415
20
8.9567779
40
3.1634025
50
221.2421682
51
227.2778006
0
ARC
8
0
10
63.7899005
20
9.1521987
40
3.4078384
50
227.6719478
51
261.8409336
0
ARC
8
0
10
63.8340146
20
9.326129
40
3.5863191
50
261.537655
51
270.0035059
0
LINE
8
DEFAULT_255_2_778
10
8.9315467
20
5.7398099
11
15.5469575
21
5.7398099
0
LINE
8
DEFAULT_255_2_778
10
15.5469575
20
11.8417588
11
8.9315467
21
11.8417588
0
LINE
8
DEFAULT_255_2_778
10
9.9212513
20
20.622622
11
13.2289537
21
20.622622
0
LINE
8
DEFAULT_255_2_778
10
13.2289537
20
26.7196132
11
9.9212513
21
26.7196132
0
LINE
8
DEFAULT_255_2_778
10
52.2529282
20
20.622622
11
55.561875
21
20.622622
0
LINE
8
DEFAULT_255_2_778
10
55.561875
20
26.7196132
11
52.2541676
21
26.7196132
0
LINE
8
DEFAULT_255_2_778
10
66.1485186
20
20.622622
11
69.4562139
21
20.622622
0
LINE
8
DEFAULT_255_2_778
10
69.4562139
20
26.7196132
11
66.1485186
21
26.7196132
0
LINE
8
DEFAULT_255_2_778
10
27.1208228
20
5.7398099
11
33.7362335
21
5.7398099
0
LINE
8
DEFAULT_255_2_778
10
33.7362335
20
11.8417588
11
27.1208228
21
11.8417588
0
LINE
8
DEFAULT_255_2_778
10
23.8118759
20
20.622622
11
27.1195854
21
20.622622
0
LINE
8
DEFAULT_255_2_778
10
27.1195854
20
26.7196132
11
23.8118759
21
26.7196132
0
LINE
8
DEFAULT_255_2_778
10
38.6574769
20
20.622622
11
41.9651884
21
20.622622
0
LINE
8
DEFAULT_255_2_778
10
41.9651884
20
26.7196132
11
38.6574769
21
26.7196132
0
LINE
8
DEFAULT_255_2_778
10
45.6437267
20
5.7398099
11
52.2541676
21
5.7398099
0
LINE
8
DEFAULT_255_2_778
10
52.2541676
20
11.8417588
11
45.6437267
21
11.8417588
0
LINE
8
DEFAULT_255_2_778
10
63.8342341
20
5.7398099
11
70.4496529
21
5.7398099
0
LINE
8
DEFAULT_255_2_778
10
70.4496529
20
11.8417588
11
63.8342341
21
11.8417588
0
ARC
8
0
10
75.4983783
20
2.7880134
40
3.249383
50
270.0047598
51
315.142884
0
ARC
8
0
10
75.4813013
20
2.8060324
40
3.274198
50
315.1301455
51
0.0004448
0
ARC
8
0
10
74.5530786
20
2.8055995
40
4.2024208
50
0.0062496
51
0.0312478
0
ARC
8
0
10
74.5531082
20
74.7164867
40
4.2023912
50
359.9687522
51
359.9937504
0
ARC
8
0
10
75.4812995
20
74.7160483
40
3.2741998
50
359.9996495
51
44.8698414
0
ARC
8
0
10
75.4983722
20
74.734058
40
3.2493944
50
44.8571652
51
89.9951323
0
ARC
8
0
10
3.8753952
20
74.7340481
40
3.2494044
50
90.0049387
51
135.1427604
0
ARC
8
0
10
3.8937163
20
74.7172817
40
3.2742178
50
135.1609168
51
180.0000902
0
ARC
8
0
10
4.577317
20
74.7175336
40
3.9578185
50
180.0037213
51
180.0483345
0
ARC
8
0
10
4.8218419
20
2.8031126
40
4.2023426
50
179.9687522
51
179.9937504
0
ARC
8
0
10
3.8937386
20
2.8035734
40
3.2742392
50
180.0000433
51
224.8696255
0
ARC
8
0
10
3.8766318
20
2.7855558
40
3.2494042
50
224.857272
51
269.9950877
0
LINE
8
DEFAULT_255_2_778
10
3.8751151
20
-0.4613696
11
75.4986483
21
-0.4613696
0
LINE
8
DEFAULT_255_2_778
10
78.7554988
20
2.8078914
11
78.7554988
21
74.7141948
0
LINE
8
DEFAULT_255_2_778
10
75.4986483
20
77.9834524
11
3.8751151
21
77.9834524
0
LINE
8
DEFAULT_255_2_778
10
0.6194999
20
74.7141948
11
0.6194999
21
2.8054044
0
ARC
8
0
10
69.4537109
20
35.0546678
40
3.3691708
50
270.0214951
51
286.957622
0
ARC
8
0
10
69.4667298
20
35.0078542
40
3.3205958
50
286.9783447
51
314.800728
0
ARC
8
0
10
69.5526928
20
34.9313991
40
3.2057809
50
314.6734307
51
348.8114468
0
ARC
8
0
10
69.5753836
20
34.9188416
40
3.1810945
50
348.9540239
51
0.0257946
0
ARC
8
0
10
69.6340452
20
34.9202737
40
3.1224326
50
4e-7
51
0.0410138
0
ARC
8
0
10
69.5841153
20
60.7968219
40
3.1723632
50
359.9454788
51
18.6635312
0
ARC
8
0
10
69.4911132
20
60.7452881
40
3.2770216
50
18.9968191
51
70.3686279
0
ARC
8
0
10
69.4519939
20
60.6624309
40
3.3682175
50
70.215393
51
87.8859811
0
ARC
8
0
10
69.4456781
20
60.5778647
40
3.4529606
50
87.8330155
51
89.8457363
0
ARC
8
0
10
9.9158364
20
60.6832807
40
3.3475365
50
89.9073811
51
134.1973299
0
ARC
8
0
10
9.8133407
20
60.7896828
40
3.1997995
50
134.2097335
51
179.9040623
0
ARC
8
0
10
9.813348
20
34.9241524
40
3.1998067
50
180.095938
51
225.7902107
0
ARC
8
0
10
9.9145369
20
35.0273548
40
3.3443392
50
225.7804523
51
270.1149702
0
LINE
8
DEFAULT_255_2_778
10
9.9212477
20
31.6854972
11
69.4549749
21
31.6854972
0
LINE
8
DEFAULT_255_2_778
10
72.7564771
20
34.9225088
11
72.7564771
21
60.7938032
0
LINE
8
DEFAULT_255_2_778
10
69.4549749
20
64.0308128
11
9.9212477
21
64.0308128
0
LINE
8
DEFAULT_255_2_778
10
6.6135458
20
60.7950406
11
6.6135458
21
34.9187945
0
LINE
8
DEFAULT_255_2_778
10
52.9350678
20
38.7610451
11
53.2910175
21
41.076565
0
LINE
8
DEFAULT_255_2_778
10
52.5791181
20
35.50543
11
52.9350678
21
37.8209499
0
LINE
8
DEFAULT_255_2_778
10
55.4316571
20
41.6011817
11
58.2841961
21
41.6011817
0
LINE
8
DEFAULT_255_2_778
10
54.3650637
20
35.50543
11
54.7210133
21
37.8209499
0
LINE
8
DEFAULT_255_2_778
10
58.2854355
20
38.7610451
11
58.6413852
21
41.076565
0
LINE
8
DEFAULT_255_2_778
10
55.0769469
20
38.0479104
11
57.9294858
21
38.0479104
0
LINE
8
DEFAULT_255_2_778
10
54.7197618
20
35.4831041
11
57.5723008
21
35.4831041
0
LINE
8
DEFAULT_255_2_778
10
60.2462452
20
41.6011817
11
63.0987842
21
41.6011817
0
LINE
8
DEFAULT_255_2_778
10
63.0987842
20
38.7486428
11
63.4547339
21
41.0641587
0
LINE
8
DEFAULT_255_2_778
10
59.902706
20
38.0479104
11
62.7552449
21
38.0479104
0
LINE
8
DEFAULT_255_2_778
10
59.5455209
20
35.4831041
11
62.3980599
21
35.4831041
0
LINE
8
DEFAULT_255_2_778
10
62.7552449
20
35.4533417
11
63.1111946
21
37.7688576
0
LINE
8
DEFAULT_255_2_778
10
64.7148192
20
38.792051
11
65.0769701
21
41.1075669
0
LINE
8
DEFAULT_255_2_778
10
65.0744791
20
38.0813991
11
67.9270221
21
38.0813991
0
LINE
8
DEFAULT_255_2_778
10
68.2842032
20
38.792051
11
68.6401569
21
41.1075669
0
LINE
8
DEFAULT_255_2_778
10
67.9270221
20
35.4831041
11
68.2829678
21
37.7986241
0
LINE
8
DEFAULT_255_2_778
10
59.1300343
20
54.4177662
11
59.9585125
21
60.2046989
0
LINE
8
DEFAULT_255_2_778
10
59.9585125
20
53.01506
11
66.5689655
21
53.01506
0
LINE
8
DEFAULT_255_2_778
10
67.3974437
20
54.4165208
11
68.2259218
21
60.2034574
0
LINE
8
DEFAULT_255_2_778
10
66.5689655
20
46.1516023
11
67.3974437
21
51.938535
0
LINE
8
DEFAULT_255_2_778
10
31.8362008
20
54.3346661
11
32.6584818
21
60.1216028
0
LINE
8
DEFAULT_255_2_778
10
31.0052458
20
46.233457
11
31.833724
21
52.0203896
0
LINE
8
DEFAULT_255_2_778
10
37.621896
20
61.4461706
11
44.2373068
21
61.4461706
0
LINE
8
DEFAULT_255_2_778
10
35.1414273
20
46.233457
11
35.9637003
21
52.0203896
0
LINE
8
DEFAULT_255_2_778
10
44.2385422
20
54.3346661
11
45.0608192
21
60.1216028
0
LINE
8
DEFAULT_255_2_778
10
36.7934179
20
52.9307224
11
43.4075892
21
52.9307224
0
LINE
8
DEFAULT_255_2_778
10
35.9661832
20
45.402502
11
42.5815859
21
45.402502
0
LINE
8
DEFAULT_255_2_778
10
48.7827576
20
61.4461706
11
55.3981764
21
61.4461706
0
LINE
8
DEFAULT_255_2_778
10
55.3981764
20
54.3346661
11
56.2266546
21
60.1216028
0
LINE
8
DEFAULT_255_2_778
10
47.9592452
20
52.9307224
11
54.5696983
21
52.9307224
0
LINE
8
DEFAULT_255_2_778
10
47.1307671
20
45.402502
11
53.7461859
21
45.402502
0
LINE
8
DEFAULT_255_2_778
10
54.5696983
20
46.0685022
11
55.3981764
21
51.8554429
0
LINE
8
DEFAULT_255_2_778
10
9.921262
20
74.6720297
11
7.4407933
21
74.6720297
0
LINE
8
DEFAULT_255_2_778
10
7.4407933
20
74.6720297
11
6.6123152
21
73.8435548
0
LINE
8
DEFAULT_255_2_778
10
6.6123152
20
73.8435548
11
6.6123152
21
68.8850968
0
LINE
8
DEFAULT_255_2_778
10
6.6123152
20
68.8850968
11
7.4407933
21
68.0578601
0
LINE
8
DEFAULT_255_2_778
10
7.4407933
20
68.0578601
11
9.921262
21
68.0578601
0
LINE
8
DEFAULT_255_2_778
10
29.7687318
20
74.6720297
11
33.070238
21
74.6720297
0
LINE
8
DEFAULT_255_2_778
10
38.0348957
20
71.365566
11
35.554427
21
71.365566
0
LINE
8
DEFAULT_255_2_778
10
13.2302089
20
74.6720297
11
12.4017307
21
73.8447932
0
LINE
8
DEFAULT_255_2_778
10
12.4017307
20
73.8447932
11
12.4017307
21
68.8863382
0
LINE
8
DEFAULT_255_2_778
10
12.4017307
20
68.8863382
11
13.2302089
21
68.0578601
0
LINE
8
DEFAULT_255_2_778
10
13.2302089
20
68.0578601
11
14.8821994
21
68.0578601
0
LINE
8
DEFAULT_255_2_778
10
14.8821994
20
68.0578601
11
15.7106775
21
68.8863382
0
LINE
8
DEFAULT_255_2_778
10
15.7106775
20
68.8863382
11
15.7106775
21
73.8447932
0
LINE
8
DEFAULT_255_2_778
10
15.7106775
20
73.8447932
11
14.8821994
21
74.6720297
0
LINE
8
DEFAULT_255_2_778
10
14.8821994
20
74.6720297
11
13.2326847
21
74.6720297
0
LINE
8
DEFAULT_255_2_778
10
18.1886529
20
74.6720294
11
18.1886529
21
68.8850965
0
LINE
8
DEFAULT_255_2_778
10
18.1886529
20
68.8850965
11
19.0171311
21
68.0566224
0
LINE
8
DEFAULT_255_2_778
10
19.0171311
20
68.0566224
11
20.6666387
21
68.0566224
0
LINE
8
DEFAULT_255_2_778
10
20.6666387
20
68.0566224
11
21.4951169
21
68.8850965
0
LINE
8
DEFAULT_255_2_778
10
21.4951169
20
68.8850965
11
21.4951169
21
74.6720294
0
LINE
8
DEFAULT_255_2_778
10
27.2845324
20
74.6720294
11
27.2845324
21
68.0566224
0
LINE
8
DEFAULT_255_2_778
10
27.2845324
20
68.0566224
11
23.9755856
21
74.6720294
0
LINE
8
DEFAULT_255_2_778
10
23.9755856
20
74.6720294
11
23.9755856
21
68.0566224
0
LINE
8
DEFAULT_255_2_778
10
31.4194745
20
74.6720294
11
31.4194745
21
68.0566224
0
LINE
8
DEFAULT_255_2_778
10
38.8633634
20
74.6720294
11
35.5568914
21
74.6720294
0
LINE
8
DEFAULT_255_2_778
10
35.5568914
20
74.6720294
11
35.5568914
21
68.0566224
0
LINE
8
DEFAULT_255_2_778
10
35.5568914
20
68.0566224
11
38.8646029
21
68.0566224
0
LINE
8
DEFAULT_255_2_778
10
41.3425927
20
71.3655657
11
43.8230614
21
71.3655657
0
LINE
8
DEFAULT_255_2_778
10
43.8230614
20
71.3655657
11
44.6515274
21
72.1940403
0
LINE
8
DEFAULT_255_2_778
10
44.6515274
20
72.1940403
11
44.6515274
21
73.8435545
0
LINE
8
DEFAULT_255_2_778
10
44.6515274
20
73.8435545
11
43.8230614
21
74.6720294
0
LINE
8
DEFAULT_255_2_778
10
43.8230614
20
74.6720294
11
41.3425927
21
74.6720294
0
LINE
8
DEFAULT_255_2_778
10
41.3425927
20
74.6720294
11
41.3425927
21
68.0566224
0
LINE
8
DEFAULT_255_2_778
10
44.650288
20
68.0578598
11
44.650288
21
70.5420498
0
LINE
8
DEFAULT_255_2_778
10
44.650288
20
70.5420498
11
43.8218098
21
71.3643242
0
ENDSEC
0
EOF