0
SECTION
2
HEADER
0
ENDSEC
0
SECTION
2
TABLES
0
TABLE
2
LTYPE
0
LTYPE
72
65
70
64
2
CONTINUOUS
3
______
73
0
40
0
0
ENDTAB
0
TABLE
2
LAYER
0
LAYER
2
DEFAULT_255_2_778
70
0
62
255
6
CONTINUOUS
0
ENDTAB
0
ENDSEC
0
SECTION
2
ENTITIES
0
ARC
8
0
10
24.8721346
20
73.1063782
40
0.6875654
50
89.9360773
51
180.0636875
0
ARC
8
0
10
54.5044819
20
73.1080629
40
0.6858845
50
1.658005
51
90.1994693
0
ARC
8
0
10
54.478858
20
73.105631
40
0.7115701
50
359.9986317
51
1.7940451
0
ARC
8
0
10
54.502857
20
-1.1727804
40
0.6875716
50
269.9364242
51
0.0632416
0
ARC
8
0
10
24.870511
20
-1.1744761
40
0.6858796
50
181.6575493
51
270.1997126
0
ARC
8
0
10
24.8961435
20
-1.1720384
40
0.7115738
50
179.9986316
51
181.7940451
0
LINE
8
DEFAULT_255_2_778
10
24.8729017
20
73.7939433
11
54.5020941
21
73.7939433
0
LINE
8
DEFAULT_255_2_778
10
55.1904282
20
73.105614
11
55.1904282
21
-1.1720215
0
LINE
8
DEFAULT_255_2_778
10
54.5020941
20
-1.8603515
11
24.8729017
21
-1.8603515
0
LINE
8
DEFAULT_255_2_778
10
24.1845696
20
-1.1720215
11
24.1845696
21
73.105614
0
LINE
8
DEFAULT_255_2_778
10
24.1845696
20
57.6709101
11
55.1904282
21
57.6709101
0
LINE
8
DEFAULT_255_2_778
10
31.6259757
20
47.7490353
11
50.2294908
21
47.7490353
0
LINE
8
DEFAULT_255_2_778
10
42.788098
20
47.7490089
11
35.3466919
21
51.4697119
0
LINE
8
DEFAULT_255_2_778
10
35.3466919
20
51.4697119
11
35.3466919
21
44.0283059
0
LINE
8
DEFAULT_255_2_778
10
35.3466919
20
44.0283059
11
42.788098
21
47.7490089
0
LINE
8
DEFAULT_255_2_778
10
42.7880914
20
51.4697185
11
42.7880914
21
44.0283125
0
LINE
8
DEFAULT_255_2_778
10
35.3466853
20
69.4531165
11
37.053247
21
62.6318276
0
LINE
8
DEFAULT_255_2_778
10
37.053247
20
62.6318276
11
38.7610521
21
66.7246009
0
LINE
8
DEFAULT_255_2_778
10
38.7610521
20
66.7246009
11
40.4601772
21
62.6318276
0
LINE
8
DEFAULT_255_2_778
10
40.4601772
20
62.6318276
11
42.1679742
21
69.4531165
0
LINE
8
DEFAULT_255_2_778
10
46.6948295
20
65.3603431
11
48.971903
21
65.3603431
0
LINE
8
DEFAULT_255_2_778
10
48.971903
20
65.3603431
11
50.105474
21
66.7246009
0
LINE
8
DEFAULT_255_2_778
10
50.105474
20
66.7246009
11
50.105474
21
68.0925795
0
LINE
8
DEFAULT_255_2_778
10
50.105474
20
68.0925795
11
48.971903
21
69.4531165
0
LINE
8
DEFAULT_255_2_778
10
48.971903
20
69.4531165
11
46.6948295
21
69.4531165
0
LINE
8
DEFAULT_255_2_778
10
46.6948295
20
69.4531165
11
46.6948295
21
62.6318276
0
LINE
8
DEFAULT_255_2_778
10
48.6389034
20
65.6159859
11
50.2301176
21
62.8599093
0
LINE
8
DEFAULT_255_2_778
10
29.2695437
20
65.3603564
11
31.5466171
21
65.3603564
0
LINE
8
DEFAULT_255_2_778
10
31.5466171
20
65.3603564
11
32.6801881
21
66.7246141
0
LINE
8
DEFAULT_255_2_778
10
32.6801881
20
66.7246141
11
32.6801881
21
68.0925927
0
LINE
8
DEFAULT_255_2_778
10
32.6801881
20
68.0925927
11
31.5466171
21
69.4531297
0
LINE
8
DEFAULT_255_2_778
10
31.5466171
20
69.4531297
11
29.2695437
21
69.4531297
0
LINE
8
DEFAULT_255_2_778
10
29.2695437
20
69.4531297
11
29.2695437
21
62.6318408
0
LINE
8
DEFAULT_255_2_778
10
32.2461061
20
29.1455136
11
45.8886838
21
29.1455136
0
LINE
8
DEFAULT_255_2_778
10
32.2461061
20
25.4248106
11
45.8886838
21
25.4248106
0
LINE
8
DEFAULT_255_2_778
10
32.2461061
20
21.7041076
11
45.8886838
21
21.7041076
0
LINE
8
DEFAULT_255_2_778
10
32.2461061
20
17.9834046
11
45.8886838
21
17.9834046
0
LINE
8
DEFAULT_255_2_778
10
32.2461061
20
14.2627015
11
45.8886838
21
14.2627015
0
LINE
8
DEFAULT_255_2_778
10
32.2461061
20
10.5419985
11
45.8886838
21
10.5419985
0
ENDSEC
0
EOF