0
SECTION
2
HEADER
0
ENDSEC
0
SECTION
2
TABLES
0
TABLE
2
LTYPE
0
LTYPE
72
65
70
64
2
CONTINUOUS
3
______
73
0
40
0
0
ENDTAB
0
TABLE
2
LAYER
0
LAYER
2
DEFAULT_255_2_778
70
0
62
255
6
CONTINUOUS
0
ENDTAB
0
ENDSEC
0
SECTION
2
ENTITIES
0
ARC
8
0
10
24.2769513
20
76.8039076
40
0.7125014
50
91.1411798
51
179.8442759
0
ARC
8
0
10
24.2812958
20
76.774726
40
0.7417733
50
89.9990948
51
91.431802
0
ARC
8
0
10
55.0964386
20
76.7994995
40
0.7170052
50
37.0859028
51
90.2191329
0
ARC
8
0
10
55.1059939
20
76.8075087
40
0.7045533
50
359.8646337
51
37.0348967
0
ARC
8
0
10
55.0980516
20
0.0930872
40
0.7124963
50
271.1412354
51
359.8440867
0
ARC
8
0
10
55.0937081
20
0.122243
40
0.7417424
50
269.9990948
51
271.431833
0
ARC
8
0
10
24.2785626
20
0.0975093
40
0.7170141
50
217.0863787
51
270.2193428
0
ARC
8
0
10
24.268989
20
0.0894847
40
0.7045384
50
179.8647054
51
217.035273
0
LINE
8
DEFAULT_255_2_778
10
24.2813075
20
77.5164994
11
55.0936963
21
77.5164994
0
LINE
8
DEFAULT_255_2_778
10
55.8105453
20
76.8058441
11
55.8105453
21
0.0911483
0
LINE
8
DEFAULT_255_2_778
10
55.0936963
20
-0.6194995
11
24.2813075
21
-0.6194995
0
LINE
8
DEFAULT_255_2_778
10
23.5644525
20
0.0911483
11
23.5644525
21
76.8058441
0
LINE
8
DEFAULT_255_2_778
10
23.5644525
20
60.153226
11
55.8105453
21
60.153226
0
LINE
8
DEFAULT_255_2_778
10
28.277343
20
71.6253936
11
31.0678702
21
71.6253936
0
LINE
8
DEFAULT_255_2_778
10
28.277333
20
66.0443292
11
31.0678603
21
66.0443292
0
LINE
8
DEFAULT_255_2_778
10
29.6726182
20
71.6253781
11
29.6726182
21
66.0443236
0
LINE
8
DEFAULT_255_2_778
10
33.161397
20
66.0443236
11
33.161397
21
71.6253781
0
LINE
8
DEFAULT_255_2_778
10
33.161397
20
71.6253781
11
35.9519222
21
66.0443236
0
LINE
8
DEFAULT_255_2_778
10
35.9519222
20
66.0443236
11
35.9519222
21
71.6253781
0
LINE
8
DEFAULT_255_2_778
10
38.0442
20
68.2767454
11
39.9070263
21
68.2767454
0
LINE
8
DEFAULT_255_2_778
10
39.9070263
20
68.2767454
11
40.8347272
21
69.3954362
0
LINE
8
DEFAULT_255_2_778
10
40.8347272
20
69.3954362
11
40.8347272
21
70.5141295
0
LINE
8
DEFAULT_255_2_778
10
40.8347272
20
70.5141295
11
39.9070263
21
71.6266196
0
LINE
8
DEFAULT_255_2_778
10
39.9070263
20
71.6266196
11
38.0442
21
71.6266196
0
LINE
8
DEFAULT_255_2_778
10
38.0442
20
71.6266196
11
38.0442
21
66.0455651
0
LINE
8
DEFAULT_255_2_778
10
43.6252545
20
71.6266196
11
43.6252545
21
67.1592931
0
LINE
8
DEFAULT_255_2_778
10
43.6252545
20
67.1592931
11
44.5554303
21
66.0455651
0
LINE
8
DEFAULT_255_2_778
10
44.5554303
20
66.0455651
11
45.485606
21
66.0455651
0
LINE
8
DEFAULT_255_2_778
10
45.485606
20
66.0455651
11
46.4157818
21
67.1592931
0
LINE
8
DEFAULT_255_2_778
10
46.4157818
20
67.1592931
11
46.4157818
21
71.6253781
0
LINE
8
DEFAULT_255_2_778
10
48.121104
20
71.6253781
11
50.9116313
21
71.6253781
0
LINE
8
DEFAULT_255_2_778
10
49.516356
20
66.0443259
11
49.516356
21
71.6253804
0
LINE
8
DEFAULT_255_2_778
10
27.2851555
20
45.2704007
11
37.2070302
21
45.2704007
0
LINE
8
DEFAULT_255_2_778
10
42.1679676
20
45.2704007
11
52.0898423
21
45.2704007
0
LINE
8
DEFAULT_255_2_778
10
27.2851555
20
41.5496976
11
37.2070302
21
41.5496976
0
LINE
8
DEFAULT_255_2_778
10
42.1679676
20
41.5496976
11
52.0898423
21
41.5496976
0
LINE
8
DEFAULT_255_2_778
10
27.2851555
20
37.8289946
11
37.2070302
21
37.8289946
0
LINE
8
DEFAULT_255_2_778
10
42.1679676
20
37.8289946
11
52.0898423
21
37.8289946
0
LINE
8
DEFAULT_255_2_778
10
27.2851555
20
34.1082916
11
37.2070302
21
34.1082916
0
LINE
8
DEFAULT_255_2_778
10
42.1679676
20
34.1082916
11
52.0898423
21
34.1082916
0
LINE
8
DEFAULT_255_2_778
10
27.2851555
20
30.3875886
11
37.2070302
21
30.3875886
0
LINE
8
DEFAULT_255_2_778
10
42.1679676
20
30.3875886
11
52.0898423
21
30.3875886
0
LINE
8
DEFAULT_255_2_778
10
27.2851555
20
26.6668856
11
37.2070302
21
26.6668856
0
LINE
8
DEFAULT_255_2_778
10
42.1679676
20
26.6668856
11
52.0898423
21
26.6668856
0
LINE
8
DEFAULT_255_2_778
10
27.2851555
20
22.9461825
11
37.2070302
21
22.9461825
0
LINE
8
DEFAULT_255_2_778
10
42.1679676
20
22.9461825
11
52.0898423
21
22.9461825
0
LINE
8
DEFAULT_255_2_778
10
27.2851555
20
19.2254795
11
37.2070302
21
19.2254795
0
LINE
8
DEFAULT_255_2_778
10
42.1679676
20
19.2254795
11
52.0898423
21
19.2254795
0
LINE
8
DEFAULT_255_2_778
10
27.2851555
20
15.5047765
11
37.2070302
21
15.5047765
0
LINE
8
DEFAULT_255_2_778
10
42.1679676
20
15.5047765
11
52.0898423
21
15.5047765
0
LINE
8
DEFAULT_255_2_778
10
27.2851555
20
11.7840735
11
37.2070302
21
11.7840735
0
LINE
8
DEFAULT_255_2_778
10
42.1679676
20
11.7840735
11
52.0898423
21
11.7840735
0
LINE
8
DEFAULT_255_2_778
10
27.2851555
20
8.0633705
11
37.2070302
21
8.0633705
0
LINE
8
DEFAULT_255_2_778
10
42.1679676
20
8.0633705
11
52.0898423
21
8.0633705
0
LINE
8
DEFAULT_255_2_778
10
27.2851555
20
4.3426674
11
37.2070302
21
4.3426674
0
LINE
8
DEFAULT_255_2_778
10
42.1679676
20
4.3426674
11
52.0898423
21
4.3426674
0
ENDSEC
0
EOF