0
SECTION
2
HEADER
0
ENDSEC
0
SECTION
2
TABLES
0
TABLE
2
LTYPE
0
LTYPE
72
65
70
64
2
CONTINUOUS
3
______
73
0
40
0
0
ENDTAB
0
TABLE
2
LAYER
0
LAYER
2
DEFAULT_255_2_778
70
0
62
255
6
CONTINUOUS
0
ENDTAB
0
ENDSEC
0
SECTION
2
ENTITIES
0
ARC
8
0
10
24.1665352
20
76.8013696
40
0.7149573
50
91.317473
51
179.6414183
0
ARC
8
0
10
24.1733892
20
76.766135
40
0.7503645
50
89.9986625
51
91.7788305
0
ARC
8
0
10
55.2046362
20
76.7919688
40
0.724537
50
40.7816451
51
90.240805
0
ARC
8
0
10
55.2216925
20
76.8071367
40
0.7017146
50
359.8944587
51
40.7535249
0
ARC
8
0
10
55.2084722
20
0.095621
40
0.7149477
50
271.3167463
51
359.641556
0
ARC
8
0
10
55.2016086
20
0.1308888
40
0.7503884
50
269.9986624
51
271.7787998
0
ARC
8
0
10
24.1703656
20
0.1050372
40
0.7245431
50
220.7819697
51
270.2404917
0
ARC
8
0
10
24.1532913
20
0.0898591
40
0.7017004
50
179.8947282
51
220.7541823
0
LINE
8
DEFAULT_255_2_778
10
24.1734067
20
77.5164994
11
55.2015911
21
77.5164994
0
LINE
8
DEFAULT_255_2_778
10
55.9234058
20
76.8058441
11
55.9234058
21
0.0911483
0
LINE
8
DEFAULT_255_2_778
10
55.2015911
20
-0.6194995
11
24.1734067
21
-0.6194995
0
LINE
8
DEFAULT_255_2_778
10
23.451592
20
0.0911483
11
23.451592
21
76.8058441
0
LINE
8
DEFAULT_255_2_778
10
23.451592
20
60.0973953
11
55.9234058
21
60.0973953
0
LINE
8
DEFAULT_255_2_778
10
26.7778988
20
45.2703938
11
36.6997736
21
45.2703938
0
LINE
8
DEFAULT_255_2_778
10
41.6607109
20
45.2703938
11
51.5825856
21
45.2703938
0
LINE
8
DEFAULT_255_2_778
10
26.7778988
20
41.5496908
11
36.6997736
21
41.5496908
0
LINE
8
DEFAULT_255_2_778
10
41.6607109
20
41.5496908
11
51.5825856
21
41.5496908
0
LINE
8
DEFAULT_255_2_778
10
26.7778988
20
37.8289878
11
36.6997736
21
37.8289878
0
LINE
8
DEFAULT_255_2_778
10
41.6607109
20
37.8289878
11
51.5825856
21
37.8289878
0
LINE
8
DEFAULT_255_2_778
10
26.7778988
20
34.1082847
11
36.6997736
21
34.1082847
0
LINE
8
DEFAULT_255_2_778
10
41.6607109
20
34.1082847
11
51.5825856
21
34.1082847
0
LINE
8
DEFAULT_255_2_778
10
26.7778988
20
30.3875817
11
36.6997736
21
30.3875817
0
LINE
8
DEFAULT_255_2_778
10
41.6607109
20
30.3875817
11
51.5825856
21
30.3875817
0
LINE
8
DEFAULT_255_2_778
10
26.7778988
20
26.6668787
11
36.6997736
21
26.6668787
0
LINE
8
DEFAULT_255_2_778
10
41.6607109
20
26.6668787
11
51.5825856
21
26.6668787
0
LINE
8
DEFAULT_255_2_778
10
26.7778988
20
22.9461757
11
36.6997736
21
22.9461757
0
LINE
8
DEFAULT_255_2_778
10
41.6607109
20
22.9461757
11
51.5825856
21
22.9461757
0
LINE
8
DEFAULT_255_2_778
10
26.7778988
20
19.2254726
11
36.6997736
21
19.2254726
0
LINE
8
DEFAULT_255_2_778
10
41.6607109
20
19.2254726
11
51.5825856
21
19.2254726
0
LINE
8
DEFAULT_255_2_778
10
26.7778988
20
15.5047696
11
36.6997736
21
15.5047696
0
LINE
8
DEFAULT_255_2_778
10
41.6607109
20
15.5047696
11
51.5825856
21
15.5047696
0
LINE
8
DEFAULT_255_2_778
10
26.7778988
20
11.7840666
11
36.6997736
21
11.7840666
0
LINE
8
DEFAULT_255_2_778
10
41.6607109
20
11.7840666
11
51.5825856
21
11.7840666
0
LINE
8
DEFAULT_255_2_778
10
26.7778988
20
8.0633636
11
36.6997736
21
8.0633636
0
LINE
8
DEFAULT_255_2_778
10
41.6607109
20
8.0633636
11
51.5825856
21
8.0633636
0
LINE
8
DEFAULT_255_2_778
10
26.7778988
20
4.3426606
11
36.6997736
21
4.3426606
0
LINE
8
DEFAULT_255_2_778
10
41.6607109
20
4.3426606
11
51.5825856
21
4.3426606
0
LINE
8
DEFAULT_255_2_778
10
34.3619338
20
71.4021319
11
33.1762686
21
70.2214299
0
LINE
8
DEFAULT_255_2_778
10
33.1762686
20
70.2214299
11
33.1762686
21
66.6644362
0
LINE
8
DEFAULT_255_2_778
10
33.1762686
20
66.6644362
11
34.3619338
21
65.4837337
0
LINE
8
DEFAULT_255_2_778
10
34.3619338
20
65.4837337
11
35.5475991
21
65.4837337
0
LINE
8
DEFAULT_255_2_778
10
35.5475991
20
65.4837337
11
36.7258217
21
66.6644362
0
LINE
8
DEFAULT_255_2_778
10
36.7258217
20
66.6644362
11
36.7258217
21
70.2214299
0
LINE
8
DEFAULT_255_2_778
10
36.7258217
20
70.2214299
11
35.5475991
21
71.4021319
0
LINE
8
DEFAULT_255_2_778
10
35.5475991
20
71.4021319
11
34.3619338
21
71.4021319
0
LINE
8
DEFAULT_255_2_778
10
37.9114849
20
71.4021319
11
37.9114849
21
66.6644362
0
LINE
8
DEFAULT_255_2_778
10
37.9114849
20
66.6644362
11
39.0971441
21
65.4837337
0
LINE
8
DEFAULT_255_2_778
10
39.0971441
20
65.4837337
11
40.2828073
21
65.4837337
0
LINE
8
DEFAULT_255_2_778
10
40.2828073
20
65.4837337
11
41.46103
21
66.6644362
0
LINE
8
DEFAULT_255_2_778
10
41.46103
20
66.6644362
11
41.46103
21
71.4021319
0
LINE
8
DEFAULT_255_2_778
10
42.6479326
20
71.4021319
11
46.1987211
21
71.4021319
0
LINE
8
DEFAULT_255_2_778
10
44.4227202
20
65.4862202
11
44.4227202
21
71.4021385
0
ENDSEC
0
EOF