0
SECTION
2
HEADER
0
ENDSEC
0
SECTION
2
TABLES
0
TABLE
2
LTYPE
0
LTYPE
72
65
70
64
2
CONTINUOUS
3
______
73
0
40
0
0
ENDTAB
0
TABLE
2
LAYER
0
LAYER
2
DEFAULT_255_2_778
70
0
62
255
6
CONTINUOUS
0
ENDTAB
0
ENDSEC
0
SECTION
2
ENTITIES
0
ARC
8
0
10
24.2505508
20
71.2434093
40
0.6862464
50
98.819059
51
178.8098274
0
ARC
8
0
10
24.2808628
20
71.1654227
40
0.7681692
50
89.9668322
51
100.1615465
0
ARC
8
0
10
55.098098
20
71.1936958
40
0.7399091
50
50.4864154
51
90.3408544
0
ARC
8
0
10
55.152603
20
71.2549929
40
0.6579477
50
0.2325469
51
50.7518612
0
ARC
8
0
10
55.1244454
20
-1.7902855
40
0.686248
50
278.8194771
51
358.8097062
0
ARC
8
0
10
55.0941408
20
-1.7123259
40
0.768143
50
269.9668449
51
280.1617262
0
ARC
8
0
10
24.2769037
20
-1.7405614
40
0.7399204
50
230.4867489
51
270.3410132
0
ARC
8
0
10
24.2223916
20
-1.8018712
40
0.6579447
50
180.2324958
51
230.7520099
0
LINE
8
DEFAULT_255_2_778
10
24.2813075
20
71.9335917
11
55.0936963
21
71.9335917
0
LINE
8
DEFAULT_255_2_778
10
55.8105453
20
71.2576633
11
55.8105453
21
-1.804541
0
LINE
8
DEFAULT_255_2_778
10
55.0936963
20
-2.4804687
11
24.2813075
21
-2.4804687
0
LINE
8
DEFAULT_255_2_778
10
23.5644525
20
-1.804541
11
23.5644525
21
71.2576633
0
LINE
8
DEFAULT_255_2_778
10
23.5644525
20
55.8725504
11
55.8105453
21
55.8725504
0
LINE
8
DEFAULT_255_2_778
10
37.2070302
20
69.5151282
11
42.1679676
21
69.5151282
0
LINE
8
DEFAULT_255_2_778
10
37.2070302
20
59.5932667
11
42.1679676
21
59.5932667
0
LINE
8
DEFAULT_255_2_778
10
39.6875055
20
69.5151414
11
39.6875055
21
59.5932667
0
LINE
8
DEFAULT_255_2_778
10
30.385748
20
59.5932667
11
32.8662166
21
69.5151414
0
LINE
8
DEFAULT_255_2_778
10
32.8662166
20
69.5151414
11
35.3466853
21
59.5932667
0
LINE
8
DEFAULT_255_2_778
10
35.3466787
20
63.3139631
11
30.3857413
21
63.3139631
0
LINE
8
DEFAULT_255_2_778
10
46.843647
20
69.4531231
11
44.7724597
21
67.4737073
0
LINE
8
DEFAULT_255_2_778
10
44.7724597
20
67.4737073
11
44.7724597
21
61.5106605
0
LINE
8
DEFAULT_255_2_778
10
44.7724597
20
61.5106605
11
46.843647
21
59.5312483
0
LINE
8
DEFAULT_255_2_778
10
46.843647
20
59.5312483
11
48.9148384
21
59.5312483
0
LINE
8
DEFAULT_255_2_778
10
48.9148384
20
59.5312483
11
50.9761062
21
61.5106605
0
LINE
8
DEFAULT_255_2_778
10
50.9761062
20
61.5106605
11
50.9761062
21
67.4737073
0
LINE
8
DEFAULT_255_2_778
10
50.9761062
20
67.4737073
11
48.9123595
21
69.4531231
0
LINE
8
DEFAULT_255_2_778
10
48.9123595
20
69.4531231
11
46.8411722
21
69.4531231
0
LINE
8
DEFAULT_255_2_778
10
27.2851555
20
13.6425777
11
37.2070302
21
13.6425777
0
LINE
8
DEFAULT_255_2_778
10
42.1679676
20
13.6425777
11
52.0898423
21
13.6425777
0
LINE
8
DEFAULT_255_2_778
10
27.2851555
20
9.9218747
11
37.2070302
21
9.9218747
0
LINE
8
DEFAULT_255_2_778
10
42.1679676
20
9.9218747
11
52.0898423
21
9.9218747
0
LINE
8
DEFAULT_255_2_778
10
27.2851555
20
6.2011717
11
37.2070302
21
6.2011717
0
LINE
8
DEFAULT_255_2_778
10
42.1679676
20
6.2011717
11
52.0898423
21
6.2011717
0
LINE
8
DEFAULT_255_2_778
10
27.2851555
20
2.4804687
11
37.2070302
21
2.4804687
0
LINE
8
DEFAULT_255_2_778
10
42.1679676
20
2.4804687
11
52.0898423
21
2.4804687
0
ENDSEC
0
EOF