0
SECTION
2
HEADER
0
ENDSEC
0
SECTION
2
TABLES
0
TABLE
2
LTYPE
0
LTYPE
72
65
70
64
2
CONTINUOUS
3
______
73
0
40
0
0
ENDTAB
0
TABLE
2
LAYER
0
LAYER
2
DEFAULT_255_2_778
70
0
62
255
6
CONTINUOUS
0
ENDTAB
0
ENDSEC
0
SECTION
2
ENTITIES
0
ARC
8
0
10
24.9646864
20
75.0097689
40
0.7032277
50
130.2036844
51
180.2341658
0
ARC
8
0
10
24.9466564
20
75.0310571
40
0.6753302
50
89.9442276
51
130.2012404
0
ARC
8
0
10
54.4219339
20
75.0149626
40
0.6914484
50
0.8299261
51
89.5230141
0
ARC
8
0
10
54.3817619
20
75.0068973
40
0.7317713
50
359.9998017
51
1.4158019
0
ARC
8
0
10
54.4103102
20
-0.5262524
40
0.7032289
50
310.2041147
51
0.2339256
0
ARC
8
0
10
54.4283469
20
-0.5475526
40
0.675318
50
269.9442784
51
310.2019073
0
ARC
8
0
10
24.9530735
20
-0.5314361
40
0.6914582
50
180.8309582
51
269.5227281
0
ARC
8
0
10
24.9932001
20
-0.5233838
40
0.7317355
50
179.9998017
51
181.4158334
0
LINE
8
DEFAULT_255_2_778
10
24.9473138
20
75.706387
11
54.4276901
21
75.706387
0
LINE
8
DEFAULT_255_2_778
10
55.1135332
20
75.0068948
11
55.1135332
21
-0.5233813
0
LINE
8
DEFAULT_255_2_778
10
54.4276901
20
-1.2228703
11
24.9473138
21
-1.2228703
0
LINE
8
DEFAULT_255_2_778
10
24.2614646
20
-0.5233813
11
24.2614646
21
75.0068948
0
LINE
8
DEFAULT_255_2_778
10
24.2614757
20
57.1375882
11
55.112305
21
57.1375882
0
LINE
8
DEFAULT_255_2_778
10
28.1868195
20
42.2733816
11
31.3841432
21
42.2733816
0
LINE
8
DEFAULT_255_2_778
10
31.3841432
20
42.2733816
11
32.757081
21
46.9329404
0
LINE
8
DEFAULT_255_2_778
10
32.757081
20
46.9329404
11
35.5004818
21
37.6150622
0
LINE
8
DEFAULT_255_2_778
10
35.5004818
20
37.6150622
11
38.2289973
21
46.9329404
0
LINE
8
DEFAULT_255_2_778
10
38.2289973
20
46.9329404
11
40.9723941
21
37.6150622
0
LINE
8
DEFAULT_255_2_778
10
40.9723941
20
37.6150622
11
43.2544212
21
46.9329404
0
LINE
8
DEFAULT_255_2_778
10
43.2544212
20
46.9329404
11
45.997822
21
37.6150622
0
LINE
8
DEFAULT_255_2_778
10
45.997822
20
37.6150622
11
47.3682809
21
42.274621
0
LINE
8
DEFAULT_255_2_778
10
47.3682809
20
42.274621
11
50.5655986
21
42.274621
0
LINE
8
DEFAULT_255_2_778
10
29.2658193
20
65.8911627
11
33.2097665
21
65.8911627
0
LINE
8
DEFAULT_255_2_778
10
33.2097665
20
65.8911627
11
35.1718156
21
67.9028222
0
LINE
8
DEFAULT_255_2_778
10
35.1718156
20
67.9028222
11
35.1718156
21
69.9144822
0
LINE
8
DEFAULT_255_2_778
10
35.1718156
20
69.9144822
11
33.2097665
21
71.9162203
0
LINE
8
DEFAULT_255_2_778
10
33.2097665
20
71.9162203
11
29.2658193
21
71.9162203
0
LINE
8
DEFAULT_255_2_778
10
29.2658193
20
71.9162203
11
29.2658193
21
61.8790057
0
LINE
8
DEFAULT_255_2_778
10
33.2097665
20
65.8911627
11
35.173055
21
63.8795022
0
LINE
8
DEFAULT_255_2_778
10
35.173055
20
63.8795022
11
35.173055
21
61.8777642
0
LINE
8
DEFAULT_255_2_778
10
37.3930745
20
71.9162203
11
43.2990729
21
71.9162203
0
LINE
8
DEFAULT_255_2_778
10
40.3448135
20
61.8777638
11
40.3448135
21
71.9162198
0
LINE
8
DEFAULT_255_2_778
10
45.3925633
20
71.9162198
11
45.3925633
21
61.8790052
0
LINE
8
DEFAULT_255_2_778
10
45.3925633
20
61.8790052
11
49.5014613
21
61.8790052
0
LINE
8
DEFAULT_255_2_778
10
49.5014613
20
61.8790052
11
51.5478479
21
63.8807432
0
LINE
8
DEFAULT_255_2_778
10
51.5478479
20
63.8807432
11
51.5478479
21
69.9144818
0
LINE
8
DEFAULT_255_2_778
10
51.5478479
20
69.9144818
11
49.5014613
21
71.9162198
0
LINE
8
DEFAULT_255_2_778
10
49.5014613
20
71.9162198
11
45.3925633
21
71.9162198
0
LINE
8
DEFAULT_255_2_778
10
28.6022732
20
23.7405578
11
49.686257
21
23.7405578
0
LINE
8
DEFAULT_255_2_778
10
28.6022732
20
16.3301576
11
49.686257
21
16.3301576
0
LINE
8
DEFAULT_255_2_778
10
28.6022732
20
7.6795231
11
49.686257
21
7.6795231
0
ENDSEC
0
EOF