0
SECTION
2
HEADER
0
ENDSEC
0
SECTION
2
TABLES
0
TABLE
2
LTYPE
0
LTYPE
72
65
70
64
2
CONTINUOUS
3
______
73
0
40
0
0
ENDTAB
0
TABLE
2
LAYER
0
LAYER
2
DEFAULT_255_2_778
70
0
62
255
6
CONTINUOUS
0
ENDTAB
0
ENDSEC
0
SECTION
2
ENTITIES
0
ARC
8
0
10
24.8700074
20
73.1072135
40
0.6866752
50
90.8763273
51
180.0306405
0
ARC
8
0
10
24.8729098
20
73.0808467
40
0.7130877
50
90.0004906
51
91.0771085
0
ARC
8
0
10
54.5046355
20
73.1069344
40
0.6870045
50
1.3778946
51
90.2117905
0
ARC
8
0
10
54.4825529
20
73.1056163
40
0.7091126
50
359.9990765
51
1.4414609
0
ARC
8
0
10
54.5038858
20
-1.1725554
40
0.68778
50
270.5956206
51
0.0435595
0
ARC
8
0
10
54.5021187
20
-1.1529601
40
0.7073945
50
269.9981666
51
270.7222394
0
ARC
8
0
10
24.8703607
20
-1.1733565
40
0.6870027
50
181.3783686
51
270.2120928
0
ARC
8
0
10
24.8924483
20
-1.172044
40
0.7091161
50
179.9990764
51
181.4414608
0
LINE
8
DEFAULT_255_2_778
10
24.8729037
20
73.7939342
11
54.5020961
21
73.7939342
0
LINE
8
DEFAULT_255_2_778
10
55.1916656
20
73.1056049
11
55.1916656
21
-1.1720326
0
LINE
8
DEFAULT_255_2_778
10
54.5020961
20
-1.8603545
11
24.8729037
21
-1.8603545
0
LINE
8
DEFAULT_255_2_778
10
24.1833322
20
-1.1720326
11
24.1833322
21
73.1068463
0
LINE
8
DEFAULT_255_2_778
10
24.1833261
20
56.4319008
11
55.1891846
21
56.4319008
0
LINE
8
DEFAULT_255_2_778
10
26.7332491
20
40.1017369
11
31.8033247
21
40.1017369
0
LINE
8
DEFAULT_255_2_778
10
31.8033247
20
40.1017369
11
31.8033247
21
45.2697918
0
LINE
8
DEFAULT_255_2_778
10
31.8033247
20
45.2697918
11
36.8882875
21
45.2697918
0
LINE
8
DEFAULT_255_2_778
10
36.8882875
20
45.2697918
11
36.8882875
21
40.1017369
0
LINE
8
DEFAULT_255_2_778
10
36.8882875
20
40.1017369
11
41.9583631
21
40.1017369
0
LINE
8
DEFAULT_255_2_778
10
41.9583631
20
40.1017369
11
41.9583631
21
45.2697918
0
LINE
8
DEFAULT_255_2_778
10
41.9583631
20
45.2697918
11
47.003638
21
45.2697918
0
LINE
8
DEFAULT_255_2_778
10
47.003638
20
45.2697918
11
47.003638
21
40.1017369
0
LINE
8
DEFAULT_255_2_778
10
47.003638
20
40.1017369
11
52.0885988
21
40.1017369
0
LINE
8
DEFAULT_255_2_778
10
33.1526992
20
67.5481203
11
31.6148147
21
68.8342442
0
LINE
8
DEFAULT_255_2_778
10
31.6148147
20
68.8342442
11
30.0694795
21
68.8342442
0
LINE
8
DEFAULT_255_2_778
10
30.0694795
20
68.8342442
11
28.5241463
21
67.5481203
0
LINE
8
DEFAULT_255_2_778
10
28.5241463
20
67.5481203
11
28.5241463
21
66.2619994
0
LINE
8
DEFAULT_255_2_778
10
28.5241463
20
66.2619994
11
30.0694795
21
64.975875
0
LINE
8
DEFAULT_255_2_778
10
30.0694795
20
64.975875
11
31.6148147
21
64.975875
0
LINE
8
DEFAULT_255_2_778
10
31.6148147
20
64.975875
11
33.1526992
21
63.6897516
0
LINE
8
DEFAULT_255_2_778
10
33.1526992
20
63.6897516
11
33.1526992
21
62.4036272
0
LINE
8
DEFAULT_255_2_778
10
33.1526992
20
62.4036272
11
31.6148147
21
61.1175068
0
LINE
8
DEFAULT_255_2_778
10
31.6148147
20
61.1175068
11
30.0694795
21
61.1175068
0
LINE
8
DEFAULT_255_2_778
10
30.0694795
20
61.1175068
11
28.5241463
21
62.4011473
0
LINE
8
DEFAULT_255_2_778
10
36.8064328
20
68.8342442
11
41.4225834
21
68.8342442
0
LINE
8
DEFAULT_255_2_778
10
39.1207134
20
61.1150161
11
39.1207134
21
68.8342335
0
LINE
8
DEFAULT_255_2_778
10
45.3218851
20
64.2056775
11
48.4125515
21
64.2056775
0
LINE
8
DEFAULT_255_2_778
10
48.4125515
20
64.2056775
11
49.9578787
21
65.7510107
0
LINE
8
DEFAULT_255_2_778
10
49.9578787
20
65.7510107
11
49.9578787
21
67.2889028
0
LINE
8
DEFAULT_255_2_778
10
49.9578787
20
67.2889028
11
48.4001451
21
68.8342335
0
LINE
8
DEFAULT_255_2_778
10
48.4001451
20
68.8342335
11
45.3094747
21
68.8342335
0
LINE
8
DEFAULT_255_2_778
10
45.3094747
20
68.8342335
11
45.3094747
21
61.1150161
0
LINE
8
DEFAULT_255_2_778
10
28.5241504
20
22.9455629
11
49.6081342
21
22.9455629
0
LINE
8
DEFAULT_255_2_778
10
28.5241504
20
15.5351627
11
49.6081342
21
15.5351627
0
LINE
8
DEFAULT_255_2_778
10
28.5241504
20
6.8845282
11
49.6081342
21
6.8845282
0
ENDSEC
0
EOF