0
SECTION
2
HEADER
0
ENDSEC
0
SECTION
2
TABLES
0
TABLE
2
LTYPE
0
LTYPE
72
65
70
64
2
CONTINUOUS
3
______
73
0
40
0
0
ENDTAB
0
TABLE
2
LAYER
0
LAYER
2
DEFAULT_255_2_778
70
0
62
255
6
CONTINUOUS
0
ENDTAB
0
ENDSEC
0
SECTION
2
ENTITIES
0
ARC
8
0
10
75.8069157
20
-0.1508299
40
1.7095216
50
269.997636
51
314.9577453
0
ARC
8
0
10
75.8029741
20
-0.1517313
40
1.7116724
50
315.072429
51
359.9725792
0
ARC
8
0
10
75.8103263
20
72.0849552
40
1.7043204
50
0.0398779
51
27.1573205
0
ARC
8
0
10
75.8022749
20
72.0810163
40
1.713282
50
27.1516274
51
81.124297
0
ARC
8
0
10
75.803662
20
72.069252
40
1.7246943
50
81.2301268
51
89.894252
0
ARC
8
0
10
3.5693466
20
72.0896078
40
1.7043358
50
90.0400054
51
117.1572795
0
ARC
8
0
10
3.5732767
20
72.0815711
40
1.7132803
50
117.1515463
51
171.124284
0
ARC
8
0
10
3.5850477
20
72.0829581
40
1.7246992
50
171.2301423
51
179.8942472
0
ARC
8
0
10
3.5698523
20
-0.1513876
40
1.7095008
50
179.9972992
51
224.9579694
0
ARC
8
0
10
3.5689886
20
-0.1474195
40
1.7116968
50
225.0723873
51
269.9721515
0
LINE
8
DEFAULT_255_2_778
10
3.5681566
20
-1.8603515
11
75.8068452
21
-1.8603515
0
LINE
8
DEFAULT_255_2_778
10
77.5146463
20
-0.1525504
11
77.5146463
21
72.0861414
0
LINE
8
DEFAULT_255_2_778
10
75.8068452
20
73.7939433
11
3.5681566
21
73.7939433
0
LINE
8
DEFAULT_255_2_778
10
1.8603515
20
72.0861414
11
1.8603515
21
-0.151307
0
LINE
8
DEFAULT_255_2_778
10
39.0673893
20
13.0224651
11
41.547858
21
13.0224651
0
LINE
8
DEFAULT_255_2_778
10
41.547858
20
13.0224651
11
41.547858
21
24.1845742
0
LINE
8
DEFAULT_255_2_778
10
41.547858
20
24.1845742
11
39.0673893
21
24.1845742
0
LINE
8
DEFAULT_255_2_778
10
39.0673893
20
24.1845742
11
39.0673893
21
13.0224651
0
LINE
8
DEFAULT_255_2_778
10
23.5148487
20
37.4550816
11
25.9605912
21
36.0412145
0
LINE
8
DEFAULT_255_2_778
10
25.9605912
20
36.0412145
11
31.516843
21
45.6679138
0
LINE
8
DEFAULT_255_2_778
10
31.516843
20
45.6679138
11
29.0711025
21
47.0743404
0
LINE
8
DEFAULT_255_2_778
10
29.0711025
20
47.0743404
11
23.5148487
21
37.4538422
0
LINE
8
DEFAULT_255_2_778
10
53.2953641
20
36.0436974
11
55.7348954
21
37.4575645
0
LINE
8
DEFAULT_255_2_778
10
55.7348954
20
37.4575645
11
50.1848467
21
47.0780607
0
LINE
8
DEFAULT_255_2_778
10
50.1848467
20
47.0780607
11
47.7391102
21
45.6716341
0
LINE
8
DEFAULT_255_2_778
10
47.7391102
20
45.6716341
11
53.2953641
21
36.0449328
0
ENDSEC
0
EOF