0
SECTION
2
HEADER
0
ENDSEC
0
SECTION
2
TABLES
0
TABLE
2
LTYPE
0
LTYPE
72
65
70
64
2
CONTINUOUS
3
______
73
0
40
0
0
ENDTAB
0
TABLE
2
LAYER
0
LAYER
2
DEFAULT_255_2_778
70
0
62
255
6
CONTINUOUS
0
ENDTAB
0
ENDSEC
0
SECTION
2
ENTITIES
0
ARC
8
0
10
75.8069157
20
-0.1508299
40
1.7095216
50
269.997636
51
314.9577453
0
ARC
8
0
10
75.8029741
20
-0.1517313
40
1.7116724
50
315.072429
51
359.9725792
0
ARC
8
0
10
75.8103263
20
72.0849552
40
1.7043204
50
0.0398779
51
27.1573205
0
ARC
8
0
10
75.8022749
20
72.0810163
40
1.713282
50
27.1516274
51
81.124297
0
ARC
8
0
10
75.803662
20
72.069252
40
1.7246943
50
81.2301268
51
89.894252
0
ARC
8
0
10
3.5693466
20
72.0896078
40
1.7043358
50
90.0400054
51
117.1572795
0
ARC
8
0
10
3.5732767
20
72.0815711
40
1.7132803
50
117.1515463
51
171.124284
0
ARC
8
0
10
3.5850477
20
72.0829581
40
1.7246992
50
171.2301423
51
179.8942472
0
ARC
8
0
10
3.5698523
20
-0.1513876
40
1.7095008
50
179.9972992
51
224.9579694
0
ARC
8
0
10
3.5689886
20
-0.1474195
40
1.7116968
50
225.0723873
51
269.9721515
0
LINE
8
DEFAULT_255_2_778
10
3.5681566
20
-1.8603515
11
75.8068452
21
-1.8603515
0
LINE
8
DEFAULT_255_2_778
10
77.5146463
20
-0.1525504
11
77.5146463
21
72.0861414
0
LINE
8
DEFAULT_255_2_778
10
75.8068452
20
73.7939433
11
3.5681566
21
73.7939433
0
LINE
8
DEFAULT_255_2_778
10
1.8603515
20
72.0861414
11
1.8603515
21
-0.151307
0
ARC
8
0
10
40.2805633
20
36.3087735
40
32.2749574
50
359.3928977
51
0.0000102
0
ARC
8
0
10
40.3806865
20
36.3103675
40
32.1748344
50
359.9971718
51
6.7110449
0
ARC
8
0
10
40.4114125
20
36.3123695
40
32.1440849
50
6.713901
51
15.156899
0
ARC
8
0
10
40.1260802
20
36.2175598
40
32.4442851
50
15.1867577
51
40.0186159
0
ARC
8
0
10
39.932247
20
36.0728494
40
32.6857865
50
39.9943948
51
48.7233965
0
ARC
8
0
10
39.840743
20
35.968335
40
32.8246972
50
48.7237094
51
55.7481574
0
ARC
8
0
10
39.7290632
20
35.8058272
40
33.0218785
50
55.746688
51
60.0577957
0
ARC
8
0
10
39.6543997
20
35.6361101
40
33.2062158
50
60.0923257
51
64.6022924
0
ARC
8
0
10
39.6958019
20
35.7224828
40
33.1104336
50
64.6029078
51
69.4229257
0
ARC
8
0
10
39.7037874
20
35.7427786
40
33.0886259
50
69.4235192
51
75.2541708
0
ARC
8
0
10
39.6950086
20
35.7077435
40
33.1247416
50
75.2549109
51
82.6468019
0
ARC
8
0
10
39.6889627
20
35.6626554
40
33.1702327
50
82.6464123
51
90.0003613
0
ARC
8
0
10
39.6880306
20
35.6719416
40
33.1609464
50
89.9987746
51
100.9855605
0
ARC
8
0
10
39.6776442
20
35.7289738
40
33.10298
50
100.9867238
51
107.4358136
0
ARC
8
0
10
39.6741626
20
35.7413774
40
33.0901032
50
107.4364974
51
112.8654357
0
ARC
8
0
10
39.6945827
20
35.6936228
40
33.1420397
50
112.8658844
51
117.2588485
0
ARC
8
0
10
39.7373952
20
35.6099763
40
33.2360056
50
117.2584122
51
119.9065981
0
ARC
8
0
10
39.6138227
20
35.8634293
40
32.9546964
50
119.9400684
51
126.0842119
0
ARC
8
0
10
39.4947575
20
36.0274859
40
32.7519874
50
126.0849155
51
133.4613659
0
ARC
8
0
10
39.4201371
20
36.106453
40
32.6433413
50
133.4616405
51
142.8487497
0
ARC
8
0
10
39.2581826
20
36.2164396
40
32.4478348
50
142.8308383
51
165.8599112
0
ARC
8
0
10
39.0483528
20
36.2820743
40
32.2283307
50
165.8819313
51
173.7875463
0
ARC
8
0
10
39.1044644
20
36.2771271
40
32.2846481
50
173.7895943
51
180.0026642
0
ARC
8
0
10
39.2122521
20
36.2756656
40
32.3924359
50
180.0000702
51
180.5463361
0
ARC
8
0
10
39.0944478
20
35.6248196
40
32.2749708
50
179.3928978
51
180.0000099
0
ARC
8
0
10
38.9943611
20
35.623231
40
32.1748842
50
179.9971809
51
186.7110426
0
ARC
8
0
10
38.9635807
20
35.6212296
40
32.1440808
50
186.7139112
51
195.1569098
0
ARC
8
0
10
39.2489342
20
35.7160473
40
32.4443036
50
195.1867722
51
220.0186216
0
ARC
8
0
10
39.4427966
20
35.8607809
40
32.6858422
50
219.9943988
51
228.7233899
0
ARC
8
0
10
39.534316
20
35.9653116
40
32.8247753
50
228.7237015
51
235.7481367
0
ARC
8
0
10
39.6459727
20
36.1277859
40
33.0219158
50
235.7466678
51
240.057773
0
ARC
8
0
10
39.7206519
20
36.2975852
40
33.2063323
50
240.0923503
51
244.6022897
0
ARC
8
0
10
39.6792285
20
36.2111928
40
33.1105229
50
244.6029235
51
249.4229165
0
ARC
8
0
10
39.6712077
20
36.1908026
40
33.0886145
50
249.4235098
51
255.2541495
0
ARC
8
0
10
39.6799982
20
36.2258872
40
33.1247809
50
255.2548917
51
262.6467562
0
ARC
8
0
10
39.6860383
20
36.2709233
40
33.1702196
50
262.6463651
51
270.0002989
0
ARC
8
0
10
39.6869733
20
36.2616421
40
33.1609384
50
269.9987723
51
280.9855564
0
ARC
8
0
10
39.6973575
20
36.204621
40
33.1029834
50
280.9867196
51
287.4358047
0
ARC
8
0
10
39.7008252
20
36.1922399
40
33.0901321
50
287.4364999
51
292.865429
0
ARC
8
0
10
39.6805151
20
36.2397437
40
33.1417949
50
292.8658709
51
297.2588631
0
ARC
8
0
10
39.6377848
20
36.3232565
40
33.2356043
50
297.2584065
51
299.9066215
0
ARC
8
0
10
39.7611537
20
36.070168
40
32.9547128
50
299.9400827
51
306.0842319
0
ARC
8
0
10
39.880221
20
35.9061098
40
32.7520012
50
306.0849344
51
313.4613903
0
ARC
8
0
10
39.9548251
20
35.827158
40
32.6433775
50
313.4616672
51
322.8487748
0
ARC
8
0
10
40.1167818
20
35.7171663
40
32.4478662
50
322.8308684
51
345.8599366
0
ARC
8
0
10
40.3265898
20
35.6515392
40
32.2283852
50
345.8819531
51
353.7875604
0
ARC
8
0
10
40.2704194
20
35.6564928
40
32.2847619
50
353.7896084
51
0.0026606
0
ARC
8
0
10
40.1766831
20
35.6580152
40
32.3784982
50
359.9999589
51
0.5464164
0
LINE
8
0
10
27.9052727
20
35.9668088
11
27.9052727
21
35.9669225
0
ARC
8
0
10
23.5678785
20
35.9694594
40
4.3373949
50
359.9664878
51
16.5292324
0
ARC
8
0
10
23.5602358
20
35.9630619
40
4.3465436
50
16.5814172
51
66.9792557
0
ARC
8
0
10
23.5655237
20
35.9623928
40
4.3450946
50
67.0468805
51
80.0232821
0
ARC
8
0
10
23.5584019
20
35.9348173
40
4.3734874
50
79.9939798
51
85.0101577
0
ARC
8
0
10
23.5617226
20
35.971359
40
4.3367953
50
85.0118711
51
89.9979065
0
ARC
8
0
10
23.562391
20
35.981348
40
4.3268064
50
90.0067532
51
111.3693673
0
ARC
8
0
10
23.5669915
20
35.9626048
40
4.3459381
50
111.3358094
51
145.0836332
0
ARC
8
0
10
23.565068
20
35.9690484
40
4.3406746
50
145.1388442
51
160.0286632
0
ARC
8
0
10
23.590828
20
35.9567691
40
4.3690804
50
159.9926984
51
165.9775685
0
ARC
8
0
10
23.5524438
20
35.9665282
40
4.3294754
50
165.9797876
51
172.6570224
0
ARC
8
0
10
23.5412451
20
35.9681491
40
4.3181614
50
172.6593616
51
173.6075964
0
ARC
8
0
10
23.5428166
20
35.9679687
40
4.3197433
50
173.6075396
51
179.2053395
0
ARC
8
0
10
23.5462023
20
35.9678925
40
4.3231296
50
179.2049521
51
179.9999747
0
ARC
8
0
10
23.5708283
20
35.9695997
40
4.347756
50
180.0224719
51
225.5362277
0
ARC
8
0
10
23.562536
20
35.9681265
40
4.3408989
50
225.6007219
51
239.7997077
0
ARC
8
0
10
23.5990083
20
36.0267691
40
4.409929
50
239.7734191
51
239.9999789
0
ARC
8
0
10
23.5639207
20
35.9645783
40
4.3385266
50
239.9906202
51
253.9534089
0
ARC
8
0
10
23.5641946
20
35.9676967
40
4.3415992
50
253.9613106
51
270.0034121
0
ARC
8
0
10
23.564957
20
35.9654674
40
4.3393699
50
269.9936325
51
291.4451476
0
ARC
8
0
10
23.5628394
20
35.9689586
40
4.3433936
50
291.4543098
51
300.0042635
0
ARC
8
0
10
23.5673726
20
35.9637422
40
4.3366095
50
299.9868611
51
322.1201054
0
ARC
8
0
10
23.5645865
20
35.9668609
40
4.3407236
50
322.1101949
51
355.1686793
0
ARC
8
0
10
23.5560291
20
35.9667753
40
4.3492435
50
355.1792968
51
0.0004405
0
ARC
8
0
10
55.8048755
20
35.9702159
40
4.3464913
50
359.9550871
51
15.0258033
0
ARC
8
0
10
55.8226634
20
35.9705821
40
4.3292187
50
15.0821543
51
40.1219185
0
ARC
8
0
10
55.8060429
20
35.9636241
40
4.346415
50
40.0508675
51
71.9382164
0
ARC
8
0
10
55.8167672
20
35.9786316
40
4.3288257
50
72.0115809
51
87.7661936
0
ARC
8
0
10
55.81067
20
35.8907713
40
4.4168577
50
87.7315837
51
90.0016167
0
ARC
8
0
10
55.8071382
20
35.961139
40
4.3464913
50
89.9550871
51
105.0258033
0
ARC
8
0
10
55.8067719
20
35.9789268
40
4.3292187
50
105.0821543
51
130.1219185
0
ARC
8
0
10
55.81373
20
35.9623063
40
4.346415
50
130.0508675
51
161.9382164
0
ARC
8
0
10
55.7987224
20
35.9730306
40
4.3288257
50
162.0115809
51
177.7661936
0
ARC
8
0
10
55.8865828
20
35.9669334
40
4.4168577
50
177.7315837
51
180.0016167
0
ARC
8
0
10
55.8162151
20
35.9634016
40
4.3464913
50
179.9550871
51
195.0258033
0
ARC
8
0
10
55.7984273
20
35.9630354
40
4.3292187
50
195.0821543
51
220.1219185
0
ARC
8
0
10
55.8150477
20
35.9699934
40
4.346415
50
220.0508675
51
251.9382164
0
ARC
8
0
10
55.8043235
20
35.9549859
40
4.3288257
50
252.0115809
51
267.7661936
0
ARC
8
0
10
55.8104207
20
36.0428462
40
4.4168577
50
267.7315837
51
270.0016167
0
ARC
8
0
10
55.8139524
20
35.9724786
40
4.3464913
50
269.9550871
51
285.0258033
0
ARC
8
0
10
55.8143187
20
35.9546907
40
4.3292187
50
285.0821543
51
310.1219185
0
ARC
8
0
10
55.8073607
20
35.9713112
40
4.346415
50
310.0508675
51
341.9382164
0
ARC
8
0
10
55.8223682
20
35.9605869
40
4.3288257
50
342.0115809
51
357.7661936
0
ARC
8
0
10
55.7345079
20
35.9666841
40
4.4168577
50
357.7315837
51
0.0016167
0
LINE
8
DEFAULT_255_2_778
10
35.2772264
20
68.158332
11
35.2772264
21
65.0577456
0
LINE
8
DEFAULT_255_2_778
10
35.2772264
20
65.0577456
11
43.2147262
21
65.0577456
0
LINE
8
DEFAULT_255_2_778
10
43.2147262
20
65.0577456
11
43.2147262
21
68.158332
0
LINE
8
DEFAULT_255_2_778
10
10.5419919
20
21.7041138
11
10.5419919
21
34.1064572
0
LINE
8
DEFAULT_255_2_778
10
10.5419919
20
34.1064572
11
6.8212889
21
34.1064572
0
LINE
8
DEFAULT_255_2_778
10
10.5419919
20
50.2294908
11
10.5419919
21
39.0673817
0
LINE
8
DEFAULT_255_2_778
10
10.5419919
20
39.0673817
11
6.8212889
21
39.0673817
0
LINE
8
DEFAULT_255_2_778
10
68.8330059
20
21.0839904
11
68.8330059
21
34.106451
0
LINE
8
DEFAULT_255_2_778
10
68.8330059
20
34.106451
11
72.5537089
21
34.106451
0
LINE
8
DEFAULT_255_2_778
10
68.8330059
20
50.8496146
11
68.8330059
21
39.0673883
0
LINE
8
DEFAULT_255_2_778
10
68.8330059
20
39.0673883
11
72.5537089
21
39.0673883
0
LINE
8
DEFAULT_255_2_778
10
35.3466919
20
3.8645546
11
35.3466919
21
6.8212781
0
LINE
8
DEFAULT_255_2_778
10
35.3466919
20
6.8212781
11
42.788098
21
6.8212781
0
LINE
8
DEFAULT_255_2_778
10
42.788098
20
6.8212781
11
42.788098
21
3.8645546
0
ENDSEC
0
EOF