0
SECTION
2
HEADER
0
ENDSEC
0
SECTION
2
TABLES
0
TABLE
2
LTYPE
0
LTYPE
72
65
70
64
2
CONTINUOUS
3
______
73
0
40
0
0
ENDTAB
0
TABLE
2
LAYER
0
LAYER
2
DEFAULT_255_2_778
70
0
62
255
6
CONTINUOUS
0
ENDTAB
0
ENDSEC
0
SECTION
2
ENTITIES
0
LINE
8
DEFAULT_255_2_778
10
1.8603515
20
12.4023434
11
77.5146463
21
12.4023434
0
LINE
8
DEFAULT_255_2_778
10
77.5146463
20
12.4023434
11
77.5146463
21
-22.3242181
0
LINE
8
DEFAULT_255_2_778
10
77.5146463
20
-22.3242181
11
1.8603515
21
-22.3242181
0
LINE
8
DEFAULT_255_2_778
10
1.8603515
20
-22.3242181
11
1.8603515
21
12.4023434
0
ARC
8
0
10
9.3093197
20
-4.9573316
40
2.4880202
50
159.6502991
51
180.0830354
0
ARC
8
0
10
9.2961568
20
-4.955734
40
2.4751252
50
100.6655554
51
159.5790135
0
ARC
8
0
10
9.3004128
20
-4.9932844
40
2.5128161
50
89.9690371
51
100.6024594
0
ARC
8
0
10
16.7467833
20
-4.9684842
40
2.4880182
50
69.65028
51
90.0830526
0
ARC
8
0
10
16.7483808
20
-4.9553228
40
2.4751246
50
10.6655354
51
69.5790041
0
ARC
8
0
10
16.7108342
20
-4.9595794
40
2.5128117
50
359.9690373
51
10.6024688
0
ARC
8
0
10
16.735628
20
-4.9645431
40
2.4880201
50
339.6502992
51
0.0830355
0
ARC
8
0
10
16.7487912
20
-4.9661413
40
2.4751246
50
280.6655505
51
339.5790236
0
ARC
8
0
10
16.7445349
20
-4.9285906
40
2.5128158
50
269.9690336
51
280.6024604
0
ARC
8
0
10
9.2981643
20
-4.9533922
40
2.4880164
50
249.6502704
51
270.0830524
0
ARC
8
0
10
9.296567
20
-4.9665518
40
2.4751247
50
190.665536
51
249.579004
0
ARC
8
0
10
9.3341134
20
-4.9622953
40
2.5128117
50
179.9690373
51
190.6024688
0
LINE
8
DEFAULT_255_2_778
10
9.3017708
20
-2.4804687
11
16.7431768
21
-2.4804687
0
LINE
8
DEFAULT_255_2_778
10
19.2236455
20
-4.9609374
11
19.2236455
21
-4.9609374
0
LINE
8
DEFAULT_255_2_778
10
16.7431768
20
-7.441406
11
9.3017708
21
-7.441406
0
LINE
8
DEFAULT_255_2_778
10
6.8213021
20
-4.9609374
11
6.8213021
21
-4.9609374
0
ARC
8
0
10
26.6726004
20
-4.9573316
40
2.4880201
50
159.6502992
51
180.0830355
0
ARC
8
0
10
26.6594371
20
-4.9557334
40
2.4751246
50
100.6655505
51
159.5790236
0
ARC
8
0
10
26.6636935
20
-4.9932841
40
2.5128158
50
89.9690336
51
100.6024604
0
ARC
8
0
10
34.1100639
20
-4.9684802
40
2.4880142
50
69.6502613
51
90.083048
0
ARC
8
0
10
34.1116595
20
-4.9553248
40
2.4751269
50
10.6655715
51
69.5789916
0
ARC
8
0
10
34.0741149
20
-4.9595794
40
2.5128117
50
359.9690373
51
10.6024689
0
ARC
8
0
10
34.0989147
20
-4.9645436
40
2.4880142
50
339.6502613
51
0.083048
0
ARC
8
0
10
34.1120701
20
-4.9661392
40
2.4751269
50
280.6655715
51
339.5789916
0
ARC
8
0
10
34.1078155
20
-4.9285947
40
2.5128117
50
269.9690373
51
280.6024689
0
ARC
8
0
10
26.6614451
20
-4.9533905
40
2.4880182
50
249.65028
51
270.0830526
0
ARC
8
0
10
26.6598475
20
-4.9665519
40
2.4751246
50
190.6655354
51
249.5790041
0
ARC
8
0
10
26.6973942
20
-4.9622953
40
2.5128117
50
179.9690373
51
190.6024688
0
LINE
8
DEFAULT_255_2_778
10
26.6650515
20
-2.4804687
11
34.1064576
21
-2.4804687
0
LINE
8
DEFAULT_255_2_778
10
36.5869263
20
-4.9609374
11
36.5869263
21
-4.9609374
0
LINE
8
DEFAULT_255_2_778
10
34.1064576
20
-7.441406
11
26.6650515
21
-7.441406
0
LINE
8
DEFAULT_255_2_778
10
24.1845829
20
-4.9609374
11
24.1845829
21
-4.9609374
0
ARC
8
0
10
45.2761036
20
-4.9573317
40
2.4880083
50
159.6501978
51
180.0830351
0
ARC
8
0
10
45.2629581
20
-4.9557398
40
2.4751317
50
100.6656187
51
159.5789257
0
ARC
8
0
10
45.2672089
20
-4.9932709
40
2.5128025
50
89.9690414
51
100.6024869
0
ARC
8
0
10
52.7135786
20
-4.9684734
40
2.4880074
50
69.650233
51
90.0830386
0
ARC
8
0
10
52.7151711
20
-4.9553284
40
2.4751309
50
10.6656383
51
69.5789809
0
ARC
8
0
10
52.6776531
20
-4.9595784
40
2.5127887
50
359.9690127
51
10.6025423
0
ARC
8
0
10
52.7024357
20
-4.9645431
40
2.4880083
50
339.6501978
51
0.0830351
0
ARC
8
0
10
52.7155813
20
-4.9661349
40
2.4751317
50
280.6656187
51
339.5789257
0
ARC
8
0
10
52.7113304
20
-4.9286038
40
2.5128025
50
269.9690414
51
280.6024869
0
ARC
8
0
10
45.2649608
20
-4.9534013
40
2.4880074
50
249.650233
51
270.0830386
0
ARC
8
0
10
45.2633682
20
-4.9665464
40
2.4751309
50
190.6656383
51
249.5789809
0
ARC
8
0
10
45.3008863
20
-4.9622964
40
2.5127887
50
179.9690127
51
190.6025423
0
LINE
8
DEFAULT_255_2_778
10
45.2685667
20
-2.4804687
11
52.7099727
21
-2.4804687
0
LINE
8
DEFAULT_255_2_778
10
55.1904414
20
-4.9609374
11
55.1904414
21
-4.9609374
0
LINE
8
DEFAULT_255_2_778
10
52.7099727
20
-7.441406
11
45.2685667
21
-7.441406
0
LINE
8
DEFAULT_255_2_778
10
42.788098
20
-4.9609374
11
42.788098
21
-4.9609374
0
ARC
8
0
10
62.6393844
20
-4.9573317
40
2.4880083
50
159.6501978
51
180.0830351
0
ARC
8
0
10
62.6262389
20
-4.9557398
40
2.4751317
50
100.6656187
51
159.5789257
0
ARC
8
0
10
62.6304897
20
-4.9932709
40
2.5128025
50
89.9690414
51
100.6024869
0
ARC
8
0
10
70.0768589
20
-4.9684666
40
2.4880006
50
69.6502047
51
90.0830292
0
ARC
8
0
10
70.078448
20
-4.9553321
40
2.4751351
50
10.6657078
51
69.5789631
0
ARC
8
0
10
70.0409337
20
-4.9595784
40
2.5127887
50
359.9690128
51
10.6025425
0
ARC
8
0
10
70.0657222
20
-4.9645436
40
2.4880025
50
339.6501593
51
0.0830472
0
ARC
8
0
10
70.078858
20
-4.9661305
40
2.4751365
50
280.6656659
51
339.5788598
0
ARC
8
0
10
70.0746112
20
-4.9286163
40
2.5127901
50
269.9690419
51
280.6025152
0
ARC
8
0
10
62.6282416
20
-4.9534013
40
2.4880074
50
249.650233
51
270.0830386
0
ARC
8
0
10
62.626649
20
-4.9665464
40
2.4751309
50
190.6656383
51
249.5789809
0
ARC
8
0
10
62.664167
20
-4.9622964
40
2.5127887
50
179.9690127
51
190.6025423
0
LINE
8
DEFAULT_255_2_778
10
62.6318474
20
-2.4804687
11
70.0732535
21
-2.4804687
0
LINE
8
DEFAULT_255_2_778
10
72.5537221
20
-4.9609374
11
72.5537221
21
-4.9609374
0
LINE
8
DEFAULT_255_2_778
10
70.0732535
20
-7.441406
11
62.6318474
21
-7.441406
0
LINE
8
DEFAULT_255_2_778
10
60.1513787
20
-4.9609374
11
60.1513787
21
-4.9609374
0
LINE
8
DEFAULT_255_2_778
10
77.5146463
20
8.6816404
11
1.8603515
21
8.6816404
0
LINE
8
DEFAULT_255_2_778
10
77.5146463
20
-18.6035151
11
1.8603515
21
-18.6035151
0
ENDSEC
0
EOF