0
SECTION
2
HEADER
0
ENDSEC
0
SECTION
2
TABLES
0
TABLE
2
LTYPE
0
LTYPE
72
65
70
64
2
CONTINUOUS
3
______
73
0
40
0
0
ENDTAB
0
TABLE
2
LAYER
0
LAYER
2
DEFAULT_255_2_778
70
0
62
255
6
CONTINUOUS
0
ENDTAB
0
ENDSEC
0
SECTION
2
ENTITIES
0
ARC
8
0
10
42.3091158
20
1.5471351
40
2.1684932
50
269.9408316
51
286.8169753
0
ARC
8
0
10
42.3984382
20
1.265557
40
1.8731192
50
286.6934743
51
304.9802557
0
ARC
8
0
10
42.6511386
20
0.915574
40
1.4415033
50
304.7256013
51
328.2991711
0
ARC
8
0
10
42.9394297
20
0.7349701
40
1.101322
50
328.4118606
51
359.6384011
0
ARC
8
0
10
43.003312
20
76.1627143
40
1.0374241
50
359.7987406
51
359.9999874
0
ARC
8
0
10
42.9082598
20
76.1505058
40
1.132542
50
0.6176334
51
39.3034275
0
ARC
8
0
10
42.6386323
20
75.9544013
40
1.465522
50
38.5588956
51
52.3060391
0
ARC
8
0
10
42.4154759
20
75.6518266
40
1.8414127
50
52.568227
51
73.7493008
0
ARC
8
0
10
42.3004435
20
75.2885923
40
2.2223427
50
73.5227144
51
90.1536947
0
ARC
8
0
10
37.0802217
20
75.3415436
40
2.1693834
50
89.9918017
51
114.8925233
0
ARC
8
0
10
36.9681536
20
75.5982167
40
1.8893949
50
115.0860348
51
126.6510668
0
ARC
8
0
10
36.6392633
20
76.0293853
40
1.3471623
50
126.3753764
51
145.2429659
0
ARC
8
0
10
36.4425689
20
76.164896
40
1.1083088
50
145.2014766
51
179.902323
0
ARC
8
0
10
36.4450452
20
76.1668151
40
1.1107834
50
180.0015311
51
180.399495
0
ARC
8
0
10
36.5063036
20
0.7514266
40
1.1722487
50
181.1441336
51
226.8797105
0
ARC
8
0
10
36.8837869
20
1.1055419
40
1.6890786
50
225.7438337
51
245.4290114
0
ARC
8
0
10
37.0407628
20
1.4346632
40
2.0536792
50
245.2642417
51
262.4580821
0
ARC
8
0
10
37.0700211
20
1.608868
40
2.2302257
50
262.3003279
51
269.9515148
0
LINE
8
DEFAULT_255_2_778
10
37.0929345
20
-0.6213569
11
42.3068764
21
-0.6213569
0
LINE
8
DEFAULT_255_2_778
10
44.0407297
20
0.7280196
11
44.0407297
21
76.1590702
0
LINE
8
DEFAULT_255_2_778
10
42.2944822
20
77.510927
11
37.0805321
21
77.510927
0
LINE
8
DEFAULT_255_2_778
10
35.3342887
20
76.1590702
11
35.3342887
21
0.7280196
0
LINE
8
DEFAULT_255_2_778
10
40.3237393
20
45.2673174
11
44.040728
21
45.2673174
0
LINE
8
DEFAULT_255_2_778
10
44.040728
20
45.2673174
11
44.040728
21
62.6305982
0
LINE
8
DEFAULT_255_2_778
10
44.040728
20
62.6305982
11
35.3590877
21
62.6305982
0
LINE
8
DEFAULT_255_2_778
10
35.3590877
20
62.6305982
11
35.3590877
21
45.2673174
0
LINE
8
DEFAULT_255_2_778
10
35.3590877
20
45.2673174
11
39.0847565
21
45.2673174
0
LINE
8
DEFAULT_255_2_778
10
39.0847565
20
45.2673174
11
39.0847565
21
46.5075518
0
LINE
8
DEFAULT_255_2_778
10
39.0847565
20
46.5075518
11
40.3249908
21
46.5075518
0
LINE
8
DEFAULT_255_2_778
10
40.3249908
20
46.5075518
11
40.3249908
21
45.2673174
0
LINE
8
DEFAULT_255_2_778
10
40.3249908
20
45.2673174
11
40.3237393
21
45.2673174
0
LINE
8
DEFAULT_255_2_778
10
39.0425796
20
31.6247397
11
35.3590877
21
31.6247397
0
LINE
8
DEFAULT_255_2_778
10
35.3590877
20
31.6247397
11
35.3590877
21
14.2614589
0
LINE
8
DEFAULT_255_2_778
10
35.3590877
20
14.2614589
11
44.040728
21
14.2614589
0
LINE
8
DEFAULT_255_2_778
10
44.040728
20
14.2614589
11
44.040728
21
31.6247397
0
LINE
8
DEFAULT_255_2_778
10
44.040728
20
31.6247397
11
40.2927455
21
31.6247397
0
LINE
8
DEFAULT_255_2_778
10
40.2927455
20
31.6247397
11
40.320025
21
30.3845053
0
LINE
8
DEFAULT_255_2_778
10
40.320025
20
30.3845053
11
39.0797907
21
30.3845053
0
LINE
8
DEFAULT_255_2_778
10
39.0797907
20
30.3845053
11
39.0425796
21
31.6247397
0
LINE
8
DEFAULT_255_2_778
10
39.0425796
20
31.6247397
11
39.0425796
21
31.6247397
0
ARC
8
0
10
39.7072071
20
22.3256347
40
1.8530542
50
359.9179845
51
25.5356075
0
ARC
8
0
10
39.6986522
20
22.3210554
40
1.8627475
50
25.5492704
51
80.5141735
0
ARC
8
0
10
39.7006123
20
22.3101129
40
1.873221
50
80.6284652
51
90.0215459
0
ARC
8
0
10
39.6972553
20
22.3302813
40
1.8530542
50
89.9179845
51
115.5356075
0
ARC
8
0
10
39.7018346
20
22.3217265
40
1.8627475
50
115.5492704
51
170.5141735
0
ARC
8
0
10
39.7127771
20
22.3236865
40
1.873221
50
170.6284652
51
180.0215459
0
ARC
8
0
10
39.6926087
20
22.3203296
40
1.8530542
50
179.9179845
51
205.5356075
0
ARC
8
0
10
39.7011635
20
22.3249089
40
1.8627475
50
205.5492704
51
260.5141735
0
ARC
8
0
10
39.6992034
20
22.3358514
40
1.873221
50
260.6284652
51
270.0215459
0
ARC
8
0
10
39.7025604
20
22.3156829
40
1.8530542
50
269.9179845
51
295.5356075
0
ARC
8
0
10
39.6979811
20
22.3242378
40
1.8627475
50
295.5492704
51
350.5141735
0
ARC
8
0
10
39.6870386
20
22.3222777
40
1.873221
50
350.6284652
51
0.0215459
0
ARC
8
0
10
39.7072099
20
54.5717271
40
1.8530513
50
359.9179963
51
25.5356319
0
ARC
8
0
10
39.6986503
20
54.5671463
40
1.8627497
50
25.5492753
51
80.5141247
0
ARC
8
0
10
39.7006123
20
54.5562057
40
1.873221
50
80.6284652
51
90.0215458
0
ARC
8
0
10
39.6972549
20
54.5763777
40
1.8530507
50
89.9179719
51
115.5356478
0
ARC
8
0
10
39.7018368
20
54.5678175
40
1.8627498
50
115.5493126
51
170.5141448
0
ARC
8
0
10
39.7127716
20
54.5697794
40
1.8732155
50
170.6284525
51
180.0215456
0
ARC
8
0
10
39.6926106
20
54.566422
40
1.8530562
50
179.9179725
51
205.5355952
0
ARC
8
0
10
39.7011616
20
54.5709997
40
1.8627453
50
205.5492655
51
260.5142222
0
ARC
8
0
10
39.6992047
20
54.581974
40
1.8732506
50
260.6285768
51
270.0215083
0
ARC
8
0
10
39.7025613
20
54.5617756
40
1.853054
50
269.9179569
51
295.5355805
0
ARC
8
0
10
39.6979829
20
54.5703288
40
1.8627454
50
295.5492397
51
350.5142042
0
ARC
8
0
10
39.6870331
20
54.5683705
40
1.8732265
50
350.628478
51
0.0215462
0
ENDSEC
0
EOF