0
SECTION
2
HEADER
0
ENDSEC
0
SECTION
2
TABLES
0
TABLE
2
LTYPE
0
LTYPE
72
65
70
64
2
CONTINUOUS
3
______
73
0
40
0
0
ENDTAB
0
TABLE
2
LAYER
0
LAYER
2
DEFAULT_255_2_778
70
0
62
255
6
CONTINUOUS
0
ENDTAB
0
ENDSEC
0
SECTION
2
ENTITIES
0
ARC
8
0
10
42.5880673
20
1.5717087
40
2.1918442
50
269.7656971
51
286.5837696
0
ARC
8
0
10
42.750654
20
1.0302126
40
1.6264679
50
286.5389753
51
301.6263291
0
ARC
8
0
10
43.0235613
20
0.5913357
40
1.1096663
50
301.5106868
51
318.4369062
0
ARC
8
0
10
43.3413414
20
0.3191991
40
0.6913853
50
317.8394085
51
349.3696049
0
ARC
8
0
10
43.452741
20
0.2878009
40
0.5761977
50
350.3947811
51
359.9932262
0
ARC
8
0
10
43.3850113
20
76.596891
40
0.6440466
50
1.1018462
51
39.2690153
0
ARC
8
0
10
43.0617388
20
76.3525938
40
1.0490637
50
38.4230568
51
56.5028203
0
ARC
8
0
10
42.8932921
20
76.1242599
40
1.3325179
50
55.8813392
51
57.790974
0
ARC
8
0
10
42.7545387
20
75.8690794
40
1.622492
50
58.4482836
51
75.3276774
0
ARC
8
0
10
42.5846252
20
75.2567624
40
2.2578981
50
75.0922292
51
90.2029044
0
ARC
8
0
10
36.7827518
20
75.3159014
40
2.1987522
50
89.8515364
51
103.7475969
0
ARC
8
0
10
36.6745991
20
75.7412026
40
1.7599377
50
103.6179088
51
117.9000884
0
ARC
8
0
10
36.4126679
20
76.2266391
40
1.2083679
50
117.6945557
51
135.1804883
0
ARC
8
0
10
36.0600255
20
76.5639867
40
0.7204993
50
134.4426569
51
166.8492316
0
ARC
8
0
10
35.9223422
20
76.6091844
40
0.5762833
50
168.1107559
51
179.9909064
0
ARC
8
0
10
36.0118994
20
0.3026613
40
0.6660679
50
181.4975732
51
224.1298369
0
ARC
8
0
10
36.3826054
20
0.6275823
40
1.158653
50
222.8983726
51
241.21712
0
ARC
8
0
10
36.6563707
20
1.1107523
40
1.713959
50
240.9731093
51
255.2149969
0
ARC
8
0
10
36.7793618
20
1.556441
40
2.1762834
50
255.0785591
51
268.3108096
0
ARC
8
0
10
36.7908521
20
1.7242999
40
2.3444172
50
268.1510446
51
270.0019531
0
LINE
8
DEFAULT_255_2_778
10
36.790932
20
-0.6201172
11
42.579104
21
-0.6201172
0
LINE
8
DEFAULT_255_2_778
10
44.0289388
20
0.2877328
11
44.0289388
21
76.6092758
0
LINE
8
DEFAULT_255_2_778
10
42.5766292
20
77.5146463
11
36.7884491
21
77.5146463
0
LINE
8
DEFAULT_255_2_778
10
35.346059
20
76.6092758
11
35.346059
21
0.2852539
0
ARC
8
0
10
39.6941896
20
28.5280424
40
1.8530542
50
359.9179845
51
25.5356075
0
ARC
8
0
10
39.6856347
20
28.5234631
40
1.8627475
50
25.5492704
51
80.5141735
0
ARC
8
0
10
39.6875948
20
28.5125206
40
1.873221
50
80.6284652
51
90.0215459
0
ARC
8
0
10
39.6842378
20
28.532689
40
1.8530542
50
89.9179845
51
115.5356075
0
ARC
8
0
10
39.6888171
20
28.5241342
40
1.8627475
50
115.5492704
51
170.5141735
0
ARC
8
0
10
39.6997596
20
28.5260943
40
1.873221
50
170.6284652
51
180.0215459
0
ARC
8
0
10
39.6795912
20
28.5227373
40
1.8530542
50
179.9179845
51
205.5356075
0
ARC
8
0
10
39.688146
20
28.5273166
40
1.8627475
50
205.5492704
51
260.5141735
0
ARC
8
0
10
39.6861859
20
28.5382591
40
1.873221
50
260.6284652
51
270.0215459
0
ARC
8
0
10
39.6895429
20
28.5180906
40
1.8530542
50
269.9179845
51
295.5356075
0
ARC
8
0
10
39.6849636
20
28.5266455
40
1.8627475
50
295.5492704
51
350.5141735
0
ARC
8
0
10
39.6740211
20
28.5246854
40
1.873221
50
350.6284652
51
0.0215459
0
LINE
8
DEFAULT_255_2_778
10
35.3460702
20
71.3134746
11
44.0277105
21
71.3134746
0
LINE
8
DEFAULT_255_2_778
10
35.3460702
20
61.3915999
11
44.0277105
21
61.3915999
0
LINE
8
DEFAULT_255_2_778
10
35.3460702
20
52.7099595
11
44.0277105
21
52.7099595
0
LINE
8
DEFAULT_255_2_778
10
35.3460702
20
42.7880847
11
39.0667732
21
42.7880847
0
LINE
8
DEFAULT_255_2_778
10
39.0667732
20
42.7880847
11
39.0667732
21
44.0283191
0
LINE
8
DEFAULT_255_2_778
10
39.0667732
20
44.0283191
11
40.3070075
21
44.0283191
0
LINE
8
DEFAULT_255_2_778
10
40.3070075
20
44.0283191
11
40.3070075
21
42.7880847
0
LINE
8
DEFAULT_255_2_778
10
40.3070075
20
42.7880847
11
44.0277105
21
42.7880847
0
LINE
8
DEFAULT_255_2_778
10
44.0277105
20
34.1064444
11
40.3070075
21
34.1064444
0
LINE
8
DEFAULT_255_2_778
10
40.3070075
20
34.1064444
11
40.3070075
21
32.86621
0
LINE
8
DEFAULT_255_2_778
10
40.3070075
20
32.86621
11
39.0667732
21
32.86621
0
LINE
8
DEFAULT_255_2_778
10
39.0667732
20
32.86621
11
39.0667732
21
34.1064444
0
LINE
8
DEFAULT_255_2_778
10
39.0667732
20
34.1064444
11
35.3460702
21
34.1064444
0
LINE
8
DEFAULT_255_2_778
10
35.3460702
20
24.1845696
11
44.0277105
21
24.1845696
0
LINE
8
DEFAULT_255_2_778
10
35.3460702
20
15.5029293
11
44.0277105
21
15.5029293
0
LINE
8
DEFAULT_255_2_778
10
35.3460702
20
5.5810545
11
44.0277105
21
5.5810545
0
ARC
8
0
10
39.6941896
20
19.846402
40
1.8530542
50
359.9179845
51
25.5356075
0
ARC
8
0
10
39.6856347
20
19.8418227
40
1.8627475
50
25.5492704
51
80.5141735
0
ARC
8
0
10
39.6875948
20
19.8308802
40
1.873221
50
80.6284652
51
90.0215459
0
ARC
8
0
10
39.6842378
20
19.8510486
40
1.8530542
50
89.9179845
51
115.5356075
0
ARC
8
0
10
39.6888171
20
19.8424938
40
1.8627475
50
115.5492704
51
170.5141735
0
ARC
8
0
10
39.6997596
20
19.8444539
40
1.873221
50
170.6284652
51
180.0215459
0
ARC
8
0
10
39.6795912
20
19.8410969
40
1.8530542
50
179.9179845
51
205.5356075
0
ARC
8
0
10
39.688146
20
19.8456762
40
1.8627475
50
205.5492704
51
260.5141735
0
ARC
8
0
10
39.6861859
20
19.8566187
40
1.873221
50
260.6284652
51
270.0215459
0
ARC
8
0
10
39.6895429
20
19.8364502
40
1.8530542
50
269.9179845
51
295.5356075
0
ARC
8
0
10
39.6849636
20
19.8450051
40
1.8627475
50
295.5492704
51
350.5141735
0
ARC
8
0
10
39.6740211
20
19.843045
40
1.873221
50
350.6284652
51
0.0215459
0
ARC
8
0
10
39.6941896
20
11.1647616
40
1.8530542
50
359.9179845
51
25.5356075
0
ARC
8
0
10
39.6856347
20
11.1601823
40
1.8627475
50
25.5492704
51
80.5141735
0
ARC
8
0
10
39.6875948
20
11.1492398
40
1.873221
50
80.6284652
51
90.0215459
0
ARC
8
0
10
39.6842378
20
11.1694083
40
1.8530542
50
89.9179845
51
115.5356075
0
ARC
8
0
10
39.6888171
20
11.1608534
40
1.8627475
50
115.5492704
51
170.5141735
0
ARC
8
0
10
39.6997596
20
11.1628135
40
1.873221
50
170.6284652
51
180.0215459
0
ARC
8
0
10
39.679595
20
11.1594557
40
1.8530581
50
179.9179605
51
205.5355829
0
ARC
8
0
10
39.6881424
20
11.1640324
40
1.8627435
50
205.549272
51
260.5142669
0
ARC
8
0
10
39.6861872
20
11.175008
40
1.8732506
50
260.6285769
51
270.0215083
0
ARC
8
0
10
39.6895429
20
11.154817
40
1.8530614
50
269.9179831
51
295.5355011
0
ARC
8
0
10
39.6849679
20
11.1633608
40
1.8627428
50
295.549195
51
350.5142399
0
ARC
8
0
10
39.6740077
20
11.1614046
40
1.8732344
50
350.628503
51
0.0215465
0
ARC
8
0
10
39.6941876
20
48.3717922
40
1.8530562
50
359.9179725
51
25.5355952
0
ARC
8
0
10
39.6856366
20
48.3672145
40
1.8627453
50
25.5492655
51
80.5142222
0
ARC
8
0
10
39.6875936
20
48.3562403
40
1.8732506
50
80.6285768
51
90.0215083
0
ARC
8
0
10
39.6842369
20
48.3764387
40
1.853054
50
89.9179569
51
115.5355805
0
ARC
8
0
10
39.6888153
20
48.3678854
40
1.8627454
50
115.5492397
51
170.5142042
0
ARC
8
0
10
39.6997651
20
48.3698437
40
1.8732265
50
170.628478
51
180.0215462
0
ARC
8
0
10
39.6795931
20
48.3664864
40
1.8530562
50
179.9179725
51
205.5355952
0
ARC
8
0
10
39.6881441
20
48.371064
40
1.8627453
50
205.5492655
51
260.5142222
0
ARC
8
0
10
39.6861872
20
48.3820383
40
1.8732506
50
260.6285768
51
270.0215083
0
ARC
8
0
10
39.6895438
20
48.3618399
40
1.853054
50
269.9179569
51
295.5355805
0
ARC
8
0
10
39.6849654
20
48.3703931
40
1.8627454
50
295.5492397
51
350.5142042
0
ARC
8
0
10
39.6740156
20
48.3684348
40
1.8732265
50
350.628478
51
0.0215462
0
ARC
8
0
10
39.6941924
20
57.0534318
40
1.8530513
50
359.9179963
51
25.5356319
0
ARC
8
0
10
39.6856328
20
57.048851
40
1.8627497
50
25.5492753
51
80.5141247
0
ARC
8
0
10
39.6875948
20
57.0379104
40
1.873221
50
80.6284652
51
90.0215458
0
ARC
8
0
10
39.6842374
20
57.0580824
40
1.8530507
50
89.9179719
51
115.5356478
0
ARC
8
0
10
39.6888193
20
57.0495222
40
1.8627498
50
115.5493126
51
170.5141448
0
ARC
8
0
10
39.6997541
20
57.0514841
40
1.8732155
50
170.6284525
51
180.0215456
0
ARC
8
0
10
39.6795883
20
57.0481275
40
1.8530513
50
179.9179963
51
205.5356319
0
ARC
8
0
10
39.6881479
20
57.0527084
40
1.8627497
50
205.5492753
51
260.5141247
0
ARC
8
0
10
39.6861859
20
57.063649
40
1.873221
50
260.6284652
51
270.0215458
0
ARC
8
0
10
39.6895433
20
57.0434769
40
1.8530507
50
269.9179719
51
295.5356478
0
ARC
8
0
10
39.6849614
20
57.0520371
40
1.8627498
50
295.5493126
51
350.5141448
0
ARC
8
0
10
39.6740266
20
57.0500753
40
1.8732155
50
350.6284525
51
0.0215456
0
ARC
8
0
10
39.6941924
20
65.7350722
40
1.8530513
50
359.9179963
51
25.5356319
0
ARC
8
0
10
39.6856328
20
65.7304913
40
1.8627497
50
25.5492753
51
80.5141247
0
ARC
8
0
10
39.6875948
20
65.7195507
40
1.873221
50
80.6284652
51
90.0215458
0
ARC
8
0
10
39.6842374
20
65.7397228
40
1.8530507
50
89.9179719
51
115.5356478
0
ARC
8
0
10
39.6888193
20
65.7311626
40
1.8627498
50
115.5493126
51
170.5141448
0
ARC
8
0
10
39.6997541
20
65.7331245
40
1.8732155
50
170.6284525
51
180.0215456
0
ARC
8
0
10
39.6795883
20
65.7297679
40
1.8530513
50
179.9179963
51
205.5356319
0
ARC
8
0
10
39.6881479
20
65.7343488
40
1.8627497
50
205.5492753
51
260.5141247
0
ARC
8
0
10
39.6861859
20
65.7452894
40
1.873221
50
260.6284652
51
270.0215458
0
ARC
8
0
10
39.6895433
20
65.7251173
40
1.8530507
50
269.9179719
51
295.5356478
0
ARC
8
0
10
39.6849614
20
65.7336775
40
1.8627498
50
295.5493126
51
350.5141448
0
ARC
8
0
10
39.6740266
20
65.7317156
40
1.8732155
50
350.6284525
51
0.0215456
0
ENDSEC
0
EOF