0
SECTION
2
HEADER
0
ENDSEC
0
SECTION
2
TABLES
0
TABLE
2
LTYPE
0
LTYPE
72
65
70
64
2
CONTINUOUS
3
______
73
0
40
0
0
ENDTAB
0
TABLE
2
LAYER
0
LAYER
2
DEFAULT_255_2_778
70
0
62
255
6
CONTINUOUS
0
ENDTAB
0
ENDSEC
0
SECTION
2
ENTITIES
0
ARC
8
0
10
39.6954095
20
70.6960164
40
1.8530513
50
359.9179963
51
25.5356319
0
ARC
8
0
10
39.6868499
20
70.6914356
40
1.8627497
50
25.5492753
51
80.5141247
0
ARC
8
0
10
39.6888119
20
70.680495
40
1.873221
50
80.6284652
51
90.0215458
0
ARC
8
0
10
39.6854545
20
70.700667
40
1.8530507
50
89.9179719
51
115.5356478
0
ARC
8
0
10
39.6900364
20
70.6921068
40
1.8627498
50
115.5493126
51
170.5141448
0
ARC
8
0
10
39.7009712
20
70.6940687
40
1.8732155
50
170.6284525
51
180.0215456
0
ARC
8
0
10
39.6808054
20
70.6907121
40
1.8530513
50
179.9179963
51
205.5356319
0
ARC
8
0
10
39.689365
20
70.695293
40
1.8627497
50
205.5492753
51
260.5141247
0
ARC
8
0
10
39.687403
20
70.7062336
40
1.873221
50
260.6284652
51
270.0215458
0
ARC
8
0
10
39.6907604
20
70.6860616
40
1.8530507
50
269.9179719
51
295.5356478
0
ARC
8
0
10
39.6861785
20
70.6946218
40
1.8627498
50
295.5493126
51
350.5141448
0
ARC
8
0
10
39.6752437
20
70.6926599
40
1.8732155
50
350.6284525
51
0.0215456
0
ARC
8
0
10
42.5846918
20
0.7324283
40
1.3525421
50
269.8156413
51
269.9973106
0
ARC
8
0
10
42.5733769
20
0.7730549
40
1.393214
50
270.4627149
51
317.6811628
0
ARC
8
0
10
42.417852
20
0.9224897
40
1.608829
50
317.4751201
51
353.9329251
0
ARC
8
0
10
42.2764414
20
0.9508377
40
1.7524938
50
353.4999519
51
0.0140836
0
ARC
8
0
10
42.3681379
20
75.9544379
40
1.6608046
50
359.8289472
51
0.0022671
0
ARC
8
0
10
42.4074747
20
75.9635223
40
1.621493
50
359.6813236
51
42.4053571
0
ARC
8
0
10
42.5690103
20
76.1138306
40
1.400854
50
42.3214484
51
89.6378386
0
ARC
8
0
10
36.8007023
20
76.122736
40
1.3919642
50
90.4535051
51
137.9097952
0
ARC
8
0
10
36.976421
20
75.9617532
40
1.6302709
50
137.8507662
51
179.7473393
0
ARC
8
0
10
37.0543491
20
75.9495036
40
1.7082937
50
179.3480166
51
180.0008018
0
ARC
8
0
10
37.0060468
20
0.9385613
40
1.6599923
50
179.9468394
51
203.8037653
0
ARC
8
0
10
36.8768558
20
0.8718234
40
1.5148817
50
203.4664456
51
242.6768671
0
ARC
8
0
10
36.7928722
20
0.7323797
40
1.352488
50
243.1262591
51
269.9174778
0
LINE
8
DEFAULT_255_2_778
10
36.7921677
20
-0.6201068
11
42.5803397
21
-0.6201068
0
LINE
8
DEFAULT_255_2_778
10
44.0289351
20
0.9512685
11
44.0289351
21
75.9494797
0
LINE
8
DEFAULT_255_2_778
10
42.5778649
20
77.5146566
11
36.7896848
21
77.5146566
0
LINE
8
DEFAULT_255_2_778
10
35.3460552
20
75.9494797
11
35.3460552
21
0.9401015
0
LINE
8
DEFAULT_255_2_778
10
44.0289276
20
34.1064645
11
35.3472872
21
34.1064645
0
LINE
8
DEFAULT_255_2_778
10
35.3472872
20
34.1064645
11
35.3472872
21
24.1845898
0
LINE
8
DEFAULT_255_2_778
10
35.3472872
20
24.1845898
11
44.0289276
21
24.1845898
0
LINE
8
DEFAULT_255_2_778
10
44.0289276
20
24.1845898
11
44.0289276
21
34.1064645
0
ENDSEC
0
EOF