0
SECTION
2
HEADER
0
ENDSEC
0
SECTION
2
TABLES
0
TABLE
2
LTYPE
0
LTYPE
72
65
70
64
2
CONTINUOUS
3
______
73
0
40
0
0
LTYPE
72
65
70
64
2
DASH_DEFAULT_255_2_778_171_171
3
______
73
2
40
2
49
-0.2645833259738156
49
0.2645833259738156
0
ENDTAB
0
TABLE
2
LAYER
0
LAYER
2
DEFAULT_255_2_778_171_171
70
0
62
255
6
DASH_DEFAULT_255_2_778_171_171
0
LAYER
2
DEFAULT_255_2_778
70
0
62
255
6
CONTINUOUS
0
ENDTAB
0
ENDSEC
0
SECTION
2
ENTITIES
0
ARC
8
0
10
39.929887
20
16.1273877
40
26.5973748
50
174.6038731
51
180.0093519
0
ARC
8
0
10
39.5006969
20
16.167342
40
26.1663294
50
168.5177527
51
174.6025938
0
ARC
8
0
10
39.2651693
20
16.2141725
40
25.9261935
50
161.6590023
51
168.5155606
0
ARC
8
0
10
39.2111354
20
16.230721
40
25.8696973
50
153.2187946
51
161.6561341
0
ARC
8
0
10
39.299437
20
16.1839817
40
25.9695873
50
141.4826433
51
153.214518
0
ARC
8
0
10
39.3581857
20
16.1417914
40
26.0418277
50
120.3759917
51
141.4905095
0
ARC
8
0
10
39.2778326
20
16.2709477
40
25.8897692
50
111.0240279
51
120.367113
0
ARC
8
0
10
39.2750296
20
16.2740498
40
25.8858681
50
103.8544266
51
111.0207002
0
ARC
8
0
10
39.3137435
20
16.1134177
40
26.0510973
50
97.8083827
51
103.8524984
0
ARC
8
0
10
39.3596141
20
15.7720423
40
26.3955394
50
92.1910994
51
97.8063549
0
ARC
8
0
10
39.3766362
20
15.4095815
40
26.7583861
50
89.9982924
51
92.1978483
0
ARC
8
0
10
39.381775
20
15.5706193
40
26.5973486
50
84.6038704
51
90.0093519
0
ARC
8
0
10
39.421729
20
15.9998007
40
26.166312
50
78.5177494
51
84.6025922
0
ARC
8
0
10
39.4685587
20
16.2353239
40
25.9261805
50
71.6589976
51
78.5155576
0
ARC
8
0
10
39.4851061
20
16.2893501
40
25.869692
50
63.2187918
51
71.6561322
0
ARC
8
0
10
39.4383652
20
16.2010426
40
25.9695879
50
51.4826432
51
63.2145179
0
ARC
8
0
10
39.3961706
20
16.1422859
40
26.0418373
50
30.3760009
51
51.490513
0
ARC
8
0
10
39.5253319
20
16.2226419
40
25.8897732
50
21.024038
51
30.3671225
0
ARC
8
0
10
39.5284355
20
16.2254471
40
25.8858699
50
13.8544334
51
21.0207069
0
ARC
8
0
10
39.3678737
20
16.186748
40
26.0510273
50
7.8083786
51
13.8525106
0
ARC
8
0
10
39.0264294
20
16.140866
40
26.3955395
50
2.1910994
51
7.806355
0
ARC
8
0
10
38.6639687
20
16.1238439
40
26.7583861
50
359.9982924
51
2.1978483
0
ARC
8
0
10
38.8249803
20
16.1187051
40
26.5973749
50
354.603873
51
0.0093519
0
ARC
8
0
10
39.25417
20
16.0787509
40
26.1663299
50
348.5177527
51
354.6025938
0
ARC
8
0
10
39.4896971
20
16.0319238
40
25.9261949
50
341.6589952
51
348.5155534
0
ARC
8
0
10
39.543698
20
16.0153895
40
25.8697344
50
333.2187919
51
341.65612
0
ARC
8
0
10
39.4554397
20
16.0621087
40
25.9695765
50
321.4826312
51
333.214512
0
ARC
8
0
10
39.3966697
20
16.1043146
40
26.0418433
50
300.3759932
51
321.4905
0
ARC
8
0
10
39.4770321
20
15.9751412
40
25.8897654
50
291.0240299
51
300.3671159
0
ARC
8
0
10
39.4798318
20
15.9720479
40
25.8858735
50
283.8544312
51
291.0207019
0
ARC
8
0
10
39.4411234
20
16.132659
40
26.0510811
50
277.808385
51
283.8525025
0
ARC
8
0
10
39.3952532
20
16.4740262
40
26.3955151
50
272.1911004
51
277.8063586
0
ARC
8
0
10
39.3782312
20
16.8364761
40
26.7583509
50
269.9982924
51
272.19785
0
ARC
8
0
10
39.3730924
20
16.6754997
40
26.5973748
50
264.6038731
51
270.0093519
0
ARC
8
0
10
39.3331381
20
16.2463096
40
26.1663294
50
258.5177527
51
264.6025938
0
ARC
8
0
10
39.2863076
20
16.010782
40
25.9261935
50
251.6590023
51
258.5155606
0
ARC
8
0
10
39.2697591
20
15.9567482
40
25.8696973
50
243.2187946
51
251.6561341
0
ARC
8
0
10
39.3164984
20
16.0450497
40
25.9695873
50
231.4826433
51
243.214518
0
ARC
8
0
10
39.3586887
20
16.1037984
40
26.0418277
50
210.3759917
51
231.4905095
0
ARC
8
0
10
39.2295324
20
16.0234453
40
25.8897692
50
201.0240279
51
210.367113
0
ARC
8
0
10
39.2264303
20
16.0206423
40
25.8858681
50
193.8544266
51
201.0207002
0
ARC
8
0
10
39.3870624
20
16.0593562
40
26.0510973
50
187.8083827
51
193.8524984
0
ARC
8
0
10
39.7284378
20
16.1052268
40
26.3955394
50
182.1910994
51
187.8063549
0
ARC
8
0
10
40.0908986
20
16.122249
40
26.7583861
50
179.9982924
51
182.1978483
0
LINE
8
DEFAULT_255_2_778_171_171
10
13.3325125
20
16.1230464
11
13.3325125
21
16.1230464
0
LINE
8
DEFAULT_255_2_778
10
66.0424919
20
49.6093604
11
60.4614373
21
49.6093604
0
LINE
8
DEFAULT_255_2_778
10
60.4614373
20
49.6093604
11
54.2602656
21
43.4081887
0
LINE
8
DEFAULT_255_2_778
10
50.5392795
20
39.6872371
11
52.2932381
21
44.9491059
0
LINE
8
DEFAULT_255_2_778
10
52.2932381
20
44.9491059
11
55.8011513
21
41.4411907
0
LINE
8
DEFAULT_255_2_778
10
55.8011513
20
41.4411907
11
50.5392795
21
39.6872371
0
ENDSEC
0
EOF