0
SECTION
2
HEADER
0
ENDSEC
0
SECTION
2
TABLES
0
TABLE
2
LTYPE
0
LTYPE
72
65
70
64
2
CONTINUOUS
3
______
73
0
40
0
0
ENDTAB
0
TABLE
2
LAYER
0
LAYER
2
DEFAULT_255_2_778
70
0
62
255
6
CONTINUOUS
0
ENDTAB
0
ENDSEC
0
SECTION
2
ENTITIES
0
ARC
8
0
10
40.2057608
20
9.9262633
40
25.3229491
50
174.4243925
51
180.0099296
0
ARC
8
0
10
39.7959189
20
9.9654308
40
24.9112407
50
168.351295
51
174.4224657
0
ARC
8
0
10
39.573716
20
10.0104536
40
24.6845237
50
161.0450276
51
168.3495088
0
ARC
8
0
10
39.532563
20
10.0230364
40
24.6415151
50
152.1310688
51
161.0416164
0
ARC
8
0
10
39.6314542
20
9.9681601
40
24.7545889
50
138.7040855
51
152.1257802
0
ARC
8
0
10
39.6651933
20
9.9447207
40
24.7954066
50
120.1527637
51
138.7148439
0
ARC
8
0
10
39.5919786
20
10.0641478
40
24.6553633
50
110.8689362
51
120.1450511
0
ARC
8
0
10
39.591459
20
10.0611611
40
24.6579689
50
103.2629679
51
110.8653358
0
ARC
8
0
10
39.6329295
20
9.8807487
40
24.8430835
50
96.8502028
51
103.2606017
0
ARC
8
0
10
39.6763688
20
9.5144748
40
25.2119239
50
91.2774771
51
96.8489354
0
ARC
8
0
10
39.6872446
20
9.1928269
40
25.5337347
50
89.9994293
51
91.2857843
0
ARC
8
0
10
39.6918873
20
9.4036034
40
25.3229586
50
84.4243935
51
90.0099293
0
ARC
8
0
10
39.731055
20
9.8134485
40
24.911247
50
78.3512968
51
84.4224665
0
ARC
8
0
10
39.7760781
20
10.0356529
40
24.6845284
50
71.04503
51
78.3495102
0
ARC
8
0
10
39.7886611
20
10.0768101
40
24.6415157
50
62.1310688
51
71.0416164
0
ARC
8
0
10
39.7337853
20
9.9779196
40
24.7545886
50
48.7040855
51
62.1257802
0
ARC
8
0
10
39.7103461
20
9.944182
40
24.7954051
50
30.1527612
51
48.714842
0
ARC
8
0
10
39.8297726
20
10.0173976
40
24.6553618
50
20.8689309
51
30.1450461
0
ARC
8
0
10
39.8268271
20
10.0179289
40
24.657925
50
13.2629578
51
20.8653391
0
ARC
8
0
10
39.6463731
20
9.9764441
40
24.8430834
50
6.8502028
51
13.2606017
0
ARC
8
0
10
39.280099
20
9.9330048
40
25.2119239
50
1.2774771
51
6.8489354
0
ARC
8
0
10
38.958451
20
9.922129
40
25.5337347
50
359.9994293
51
1.2857843
0
ARC
8
0
10
39.1692275
20
9.9174863
40
25.3229585
50
354.4243935
51
0.0099293
0
ARC
8
0
10
39.5790728
20
9.8783186
40
24.9112469
50
348.3512968
51
354.4224665
0
ARC
8
0
10
39.8012775
20
9.8332955
40
24.6845281
50
341.0450301
51
348.3495102
0
ARC
8
0
10
39.842435
20
9.8207123
40
24.6415152
50
332.1310688
51
341.0416164
0
ARC
8
0
10
39.7435547
20
9.8755803
40
24.7545755
50
318.7040839
51
332.1257853
0
ARC
8
0
10
39.7098103
20
9.8990228
40
24.7953993
50
300.1527602
51
318.7148449
0
ARC
8
0
10
39.7830225
20
9.7796014
40
24.6553622
50
290.8689308
51
300.1450461
0
ARC
8
0
10
39.7835573
20
9.7825366
40
24.6579145
50
283.262955
51
290.86534
0
ARC
8
0
10
39.7420665
20
9.9630156
40
24.8430986
50
276.8502036
51
283.2605991
0
ARC
8
0
10
39.6986286
20
10.3292858
40
25.2119351
50
271.2774775
51
276.848934
0
ARC
8
0
10
39.6877532
20
10.6509262
40
25.5337383
50
269.9994293
51
271.2857843
0
ARC
8
0
10
39.6831103
20
10.4401366
40
25.3229491
50
264.4243925
51
270.0099296
0
ARC
8
0
10
39.6439428
20
10.0302946
40
24.9112406
50
258.351295
51
264.4224657
0
ARC
8
0
10
39.5989199
20
9.8080914
40
24.6845234
50
251.0450277
51
258.3495088
0
ARC
8
0
10
39.5863371
20
9.7669381
40
24.6415146
50
242.1310688
51
251.0416164
0
ARC
8
0
10
39.6412055
20
9.8658191
40
24.7545758
50
228.7040839
51
242.1257853
0
ARC
8
0
10
39.6646481
20
9.899565
40
24.7954008
50
210.1527627
51
228.7148468
0
ARC
8
0
10
39.5452262
20
9.8263538
40
24.6553637
50
200.8689362
51
210.1450511
0
ARC
8
0
10
39.5482026
20
9.8258306
40
24.6579584
50
193.2629651
51
200.8653367
0
ARC
8
0
10
39.7286399
20
9.8673071
40
24.8430987
50
186.8502036
51
193.2605992
0
ARC
8
0
10
40.09491
20
9.910745
40
25.2119351
50
181.2774775
51
186.848934
0
ARC
8
0
10
40.4165504
20
9.9216204
40
25.5337383
50
179.9994293
51
181.2857843
0
LINE
8
DEFAULT_255_2_778
10
14.8828121
20
9.9218747
11
14.8828121
21
9.9218747
0
ARC
8
0
10
40.0471712
20
9.9261922
40
18.9631879
50
173.5273727
51
180.0130449
0
ARC
8
0
10
39.7165568
20
9.9628183
40
18.6305523
50
166.193625
51
173.5246754
0
ARC
8
0
10
39.5751554
20
9.9963544
40
18.4852334
50
157.1615008
51
166.1899769
0
ARC
8
0
10
39.6044206
20
9.9818001
40
18.5178534
50
144.8886349
51
157.1551442
0
ARC
8
0
10
39.6714663
20
9.9370637
40
18.5984301
50
118.125934
51
144.8946929
0
ARC
8
0
10
39.6113698
20
10.0385926
40
18.480561
50
107.9183152
51
118.1100042
0
ARC
8
0
10
39.6273411
20
9.9840127
40
18.5374074
50
99.8331019
51
107.9133841
0
ARC
8
0
10
39.6677424
20
9.7458111
40
18.7790094
50
93.0686528
51
99.8304413
0
ARC
8
0
10
39.6864248
20
9.4452832
40
19.0801067
50
89.9967745
51
93.076363
0
ARC
8
0
10
39.6918164
20
9.562182
40
18.9632083
50
83.5273764
51
90.013045
0
ARC
8
0
10
39.7284428
20
9.8928039
40
18.6305652
50
76.1936297
51
83.5246776
0
ARC
8
0
10
39.7619829
20
10.0342205
40
18.4852305
50
67.1615029
51
76.1899821
0
ARC
8
0
10
39.7474308
20
10.0049591
40
18.5178462
50
54.8886337
51
67.1551481
0
ARC
8
0
10
39.7026954
20
9.9379157
40
18.5984205
50
28.1259205
51
54.8946904
0
ARC
8
0
10
39.8041973
20
9.9979986
40
18.4805818
50
17.9183117
51
28.1099885
0
ARC
8
0
10
39.7496375
20
9.9820354
40
18.5374065
50
9.8330933
51
17.9133757
0
ARC
8
0
10
39.5114919
20
9.9416393
40
18.7789525
50
3.0686374
51
9.8304464
0
ARC
8
0
10
39.2109074
20
9.9229489
40
19.0801067
50
359.9967745
51
3.076363
0
ARC
8
0
10
39.3277573
20
9.917559
40
18.9632572
50
353.5273899
51
0.0130395
0
ARC
8
0
10
39.6584458
20
9.8809265
40
18.6305471
50
346.1936338
51
353.5246869
0
ARC
8
0
10
39.7998399
20
9.8473919
40
18.4852355
50
337.1615113
51
346.1899864
0
ARC
8
0
10
39.7705862
20
9.8619399
40
18.5178425
50
324.8886433
51
337.1551587
0
ARC
8
0
10
39.7035416
20
9.9066752
40
18.5984177
50
298.1259287
51
324.8947025
0
ARC
8
0
10
39.7636219
20
9.8051818
40
18.4805875
50
287.9183161
51
298.1099913
0
ARC
8
0
10
39.7476574
20
9.8597473
40
18.5374181
50
279.8330989
51
287.9133786
0
ARC
8
0
10
39.7072556
20
10.0979534
40
18.7790246
50
273.0686516
51
279.8304377
0
ARC
8
0
10
39.688573
20
10.3984918
40
19.0801322
50
269.9967745
51
273.0763606
0
ARC
8
0
10
39.6831832
20
10.2816095
40
18.9632504
50
263.5273887
51
270.0130395
0
ARC
8
0
10
39.6465623
20
9.95098
40
18.6306001
50
256.1936391
51
263.5246706
0
ARC
8
0
10
39.6130082
20
9.8095019
40
18.4852023
50
247.1614971
51
256.1899882
0
ARC
8
0
10
39.6275797
20
9.8388089
40
18.5178675
50
234.8886422
51
247.1551418
0
ARC
8
0
10
39.6723064
20
9.9058394
40
18.5984264
50
208.1259342
51
234.8946979
0
ARC
8
0
10
39.5707817
20
9.845745
40
18.4805617
50
197.9183152
51
208.1100042
0
ARC
8
0
10
39.6253655
20
9.8617167
40
18.537412
50
189.8331004
51
197.9133814
0
ARC
8
0
10
39.8635734
20
9.9021188
40
18.7790204
50
183.0686535
51
189.8304391
0
ARC
8
0
10
40.1641014
20
9.9208006
40
19.0801177
50
179.9967745
51
183.0763618
0
LINE
8
DEFAULT_255_2_778
10
21.0839838
20
9.9218747
11
21.0839838
21
9.9218747
0
ARC
8
0
10
40.0232312
20
9.9259038
40
17.6990136
50
173.527383
51
180.013043
0
ARC
8
0
10
39.7079281
20
9.961159
40
17.3817461
50
165.6970709
51
173.5256915
0
ARC
8
0
10
39.5795783
20
9.9924478
40
17.2496449
50
156.1360349
51
165.692455
0
ARC
8
0
10
39.6218266
20
9.9712584
40
17.296854
50
142.538985
51
156.1284636
0
ARC
8
0
10
39.6717548
20
9.937109
40
17.3572559
50
118.3561104
51
142.5497487
0
ARC
8
0
10
39.6165908
20
10.0304213
40
17.2489402
50
107.8471426
51
118.342072
0
ARC
8
0
10
39.6322913
20
9.9763085
40
17.3052608
50
99.5139866
51
107.8417144
0
ARC
8
0
10
39.6719053
20
9.7333898
40
17.5513861
50
92.3721119
51
99.5104526
0
ARC
8
0
10
39.6868851
20
9.4526192
40
17.8325364
50
89.9980278
51
92.3828627
0
ARC
8
0
10
39.691528
20
9.5861492
40
17.6990068
50
83.5273817
51
90.013043
0
ARC
8
0
10
39.726783
20
9.9014506
40
17.3817409
50
75.6970684
51
83.5256904
0
ARC
8
0
10
39.7580685
20
10.0297886
40
17.249652
50
66.136036
51
75.6924515
0
ARC
8
0
10
39.7368743
20
9.9875345
40
17.2968684
50
52.538991
51
66.1284581
0
ARC
8
0
10
39.702732
20
9.9376175
40
17.3572572
50
28.3561132
51
52.5497506
0
ARC
8
0
10
39.7960448
20
9.9927826
40
17.2489406
50
17.8471427
51
28.342072
0
ARC
8
0
10
39.7419327
20
9.9770796
40
17.3052614
50
9.5139955
51
17.8417232
0
ARC
8
0
10
39.4990139
20
9.9374684
40
17.5513861
50
2.3721119
51
9.5104527
0
ARC
8
0
10
39.2182433
20
9.9224886
40
17.8325364
50
359.9980278
51
2.3828627
0
ARC
8
0
10
39.3517733
20
9.9178457
40
17.6990068
50
353.5273817
51
0.013043
0
ARC
8
0
10
39.6670746
20
9.8825906
40
17.3817411
50
345.6970684
51
353.5256904
0
ARC
8
0
10
39.7953867
20
9.8513153
40
17.2496797
50
336.1360398
51
345.6924401
0
ARC
8
0
10
39.7531578
20
9.8725013
40
17.2968698
50
322.5389865
51
336.128453
0
ARC
8
0
10
39.7032405
20
9.906643
40
17.3572585
50
298.3561118
51
322.5497482
0
ARC
8
0
10
39.7584062
20
9.8133283
40
17.2489399
50
287.8471427
51
298.3420721
0
ARC
8
0
10
39.7427036
20
9.8674392
40
17.3052596
50
279.5139955
51
287.8417233
0
ARC
8
0
10
39.7030925
20
10.1103537
40
17.55138
50
272.3721123
51
279.5104544
0
ARC
8
0
10
39.6881127
20
10.391117
40
17.8325232
50
269.9980278
51
272.382864
0
ARC
8
0
10
39.6834698
20
10.2576071
40
17.6990136
50
263.527383
51
270.013043
0
ARC
8
0
10
39.6482147
20
9.9423042
40
17.3817463
50
255.6970709
51
263.5256915
0
ARC
8
0
10
39.616936
20
9.8139802
40
17.2496726
50
246.1360387
51
255.6924436
0
ARC
8
0
10
39.6381172
20
9.8562034
40
17.2968554
50
232.5389806
51
246.1284585
0
ARC
8
0
10
39.672266
20
9.9061317
40
17.3572572
50
208.356109
51
232.5497462
0
ARC
8
0
10
39.5789517
20
9.8509672
40
17.2489396
50
197.8471427
51
208.342072
0
ARC
8
0
10
39.6330634
20
9.8666673
40
17.305259
50
189.5139866
51
197.8417145
0
ARC
8
0
10
39.8759778
20
9.9062811
40
17.55138
50
182.3721123
51
189.5104544
0
ARC
8
0
10
40.1567412
20
9.9212609
40
17.8325232
50
179.9980278
51
182.382864
0
LINE
8
DEFAULT_255_2_778
10
22.3242181
20
9.9218747
11
22.3242181
21
9.9218747
0
ENDSEC
0
EOF