0
SECTION
2
HEADER
0
ENDSEC
0
SECTION
2
TABLES
0
TABLE
2
LTYPE
0
LTYPE
72
65
70
64
2
CONTINUOUS
3
______
73
0
40
0
0
ENDTAB
0
TABLE
2
LAYER
0
LAYER
2
DEFAULT_255_2_778
70
0
62
255
6
CONTINUOUS
0
ENDTAB
0
ENDSEC
0
SECTION
2
ENTITIES
0
ARC
8
0
10
39.9574742
20
9.9261506
40
15.152788
50
172.8103156
51
180.0157613
0
ARC
8
0
10
39.680646
20
9.96023
40
14.8738714
50
164.2299962
51
172.8070997
0
ARC
8
0
10
39.5924639
20
9.9834774
40
14.7826903
50
153.4234623
51
164.22382
0
ARC
8
0
10
39.6734653
20
9.9366018
40
14.8761059
50
119.7188218
51
153.4015737
0
ARC
8
0
10
39.6277465
20
10.0124434
40
14.7875752
50
108.0244014
51
119.7106563
0
ARC
8
0
10
39.6409943
20
9.9658736
40
14.8359588
50
99.0436125
51
108.0174035
0
ARC
8
0
10
39.6767146
20
9.7358355
40
15.0687521
50
91.6851835
51
99.0402568
0
ARC
8
0
10
39.6872278
20
9.4985279
40
15.3062666
50
89.9989851
51
91.6983971
0
ARC
8
0
10
39.6916673
20
9.6519813
40
15.1528136
50
82.8103218
51
90.0157614
0
ARC
8
0
10
39.72575
20
9.9288328
40
14.8738734
50
74.2300003
51
82.8071074
0
ARC
8
0
10
39.748996
20
10.0170096
40
14.7826978
50
63.4234699
51
74.2238246
0
ARC
8
0
10
39.7021282
20
9.9360263
40
14.8760937
50
29.7188021
51
63.4015769
0
ARC
8
0
10
39.7779466
20
9.9817331
40
14.7875891
50
18.0243903
51
29.7106327
0
ARC
8
0
10
39.7313602
20
9.9684833
40
14.8359892
50
9.0436076
51
18.0173797
0
ARC
8
0
10
39.501304
20
9.9327636
40
15.0688003
50
1.6851895
51
9.040239
0
ARC
8
0
10
39.2640445
20
9.9222534
40
15.3062666
50
359.9989851
51
1.6983971
0
ARC
8
0
10
39.417523
20
9.9178108
40
15.1527886
50
352.8103277
51
0.0157732
0
ARC
8
0
10
39.6943523
20
9.8837318
40
14.8738706
50
344.2300063
51
352.8071098
0
ARC
8
0
10
39.7825164
20
9.860489
40
14.7827082
50
333.4234886
51
344.223832
0
ARC
8
0
10
39.7015405
20
9.9073538
40
14.876096
50
299.7188237
51
333.4015927
0
ARC
8
0
10
39.7472569
20
9.8315191
40
14.7875725
50
288.0243947
51
299.7106537
0
ARC
8
0
10
39.7340043
20
9.8781057
40
14.8359736
50
279.0436078
51
288.0173941
0
ARC
8
0
10
39.6982837
20
10.1081472
40
15.0687702
50
271.6851813
51
279.0402514
0
ARC
8
0
10
39.68777
20
10.3454646
40
15.3062946
50
269.9989851
51
271.6983956
0
ARC
8
0
10
39.6833306
20
10.1919576
40
15.152788
50
262.8103156
51
270.0157613
0
ARC
8
0
10
39.6492511
20
9.9151294
40
14.8738714
50
254.2299962
51
262.8070997
0
ARC
8
0
10
39.6260038
20
9.8269473
40
14.7826903
50
243.4234623
51
254.22382
0
ARC
8
0
10
39.6728793
20
9.9079487
40
14.8761059
50
209.7188218
51
243.4015737
0
ARC
8
0
10
39.5970378
20
9.8622298
40
14.7875752
50
198.0244014
51
209.7106563
0
ARC
8
0
10
39.6436075
20
9.8754777
40
14.8359588
50
189.0436125
51
198.0174035
0
ARC
8
0
10
39.8736457
20
9.911198
40
15.0687521
50
181.6851835
51
189.0402568
0
ARC
8
0
10
40.1109533
20
9.9217111
40
15.3062666
50
179.9989851
51
181.6983971
0
LINE
8
DEFAULT_255_2_778
10
24.8046868
20
9.9219823
11
24.8046868
21
9.9219823
0
ARC
8
0
10
39.9342937
20
9.9262747
40
14.3023718
50
172.4519711
51
180.0171999
0
ARC
8
0
10
39.6715595
20
9.9600385
40
14.0374791
50
163.5842715
51
172.4477229
0
ARC
8
0
10
39.5986901
20
9.9797541
40
13.9620086
50
152.0573318
51
163.5773718
0
ARC
8
0
10
39.6740084
20
9.9354195
40
14.0493212
50
117.6663747
51
152.0415385
0
ARC
8
0
10
39.6296108
20
10.0111147
40
13.9616662
50
106.54396
51
117.6492433
0
ARC
8
0
10
39.648707
20
9.9411868
40
14.034137
50
97.7762416
51
106.5374017
0
ARC
8
0
10
39.6824258
20
9.6862323
40
14.2913093
50
90.2267139
51
97.7718803
0
ARC
8
0
10
39.6875333
20
9.4677496
40
14.5098111
50
90.0001238
51
90.2434683
0
ARC
8
0
10
39.6917954
20
9.6751904
40
14.3023709
50
82.4519712
51
90.0171999
0
ARC
8
0
10
39.7255594
20
9.9379288
40
14.037474
50
73.5842686
51
82.4477216
0
ARC
8
0
10
39.7452754
20
10.0108008
40
13.9620009
50
62.0573241
51
73.5773672
0
ARC
8
0
10
39.7009411
20
9.9354842
40
14.0493118
50
27.6663512
51
62.0415285
0
ARC
8
0
10
39.7766132
20
9.9798685
40
13.9616835
50
16.5439557
51
27.6492241
0
ARC
8
0
10
39.7067019
20
9.9607788
40
14.0341364
50
7.7762311
51
16.5373913
0
ARC
8
0
10
39.4517009
20
9.9270557
40
14.2913553
50
0.22672
51
7.7718621
0
ARC
8
0
10
39.2332642
20
9.9219499
40
14.5098111
50
0.0001238
51
0.2434683
0
ARC
8
0
10
39.4407045
20
9.9176877
40
14.3023714
50
352.4519712
51
0.0171999
0
ARC
8
0
10
39.7034396
20
9.8839213
40
14.0374776
50
343.5842819
51
352.4477333
0
ARC
8
0
10
39.776311
20
9.8642038
40
13.9620046
50
332.0573465
51
343.5773874
0
ARC
8
0
10
39.7009981
20
9.908535
40
14.0493107
50
297.6663781
51
332.0415546
0
ARC
8
0
10
39.7453968
20
9.8328347
40
13.9616509
50
286.5439605
51
297.6492526
0
ARC
8
0
10
39.7263055
20
9.9027397
40
14.0340983
50
277.7762273
51
286.5374099
0
ARC
8
0
10
39.6925781
20
10.1577312
40
14.2913084
50
270.2267138
51
277.7718802
0
ARC
8
0
10
39.6874706
20
10.3762149
40
14.5098111
50
270.0001238
51
270.2434683
0
ARC
8
0
10
39.6832084
20
10.168775
40
14.3023718
50
262.4519711
51
270.0171999
0
ARC
8
0
10
39.6494446
20
9.9060405
40
14.0374789
50
253.5842716
51
262.4477229
0
ARC
8
0
10
39.629721
20
9.8331538
40
13.9619896
50
242.057328
51
253.5773833
0
ARC
8
0
10
39.6740607
20
9.9084878
40
14.0493185
50
207.6663788
51
242.041546
0
ARC
8
0
10
39.5983672
20
9.8640899
40
13.9616649
50
196.54396
51
207.6492433
0
ARC
8
0
10
39.6682955
20
9.8831862
40
14.0341362
50
187.7762416
51
196.5374017
0
ARC
8
0
10
39.9232505
20
9.9169051
40
14.291309
50
180.2267139
51
187.7718803
0
ARC
8
0
10
40.1417336
20
9.9220126
40
14.5098111
50
180.0001238
51
180.2434683
0
LINE
8
DEFAULT_255_2_778
10
25.6319225
20
9.9219812
11
25.6319225
21
9.9219812
0
ENDSEC
0
EOF