0
SECTION
2
HEADER
0
ENDSEC
0
SECTION
2
TABLES
0
TABLE
2
LTYPE
0
LTYPE
72
65
70
64
2
CONTINUOUS
3
______
73
0
40
0
0
ENDTAB
0
TABLE
2
LAYER
0
LAYER
2
DEFAULT_255_2_778
70
0
62
255
6
CONTINUOUS
0
LAYER
2
DEFAULT_4_2_778
70
0
62
4
6
CONTINUOUS
0
ENDTAB
0
ENDSEC
0
SECTION
2
ENTITIES
0
LINE
8
DEFAULT_255_2_778
10
3.1005991
20
0.9301824
11
60.1513787
21
0.9301824
0
LINE
8
DEFAULT_255_2_778
10
60.1513787
20
0.9301824
11
60.1513787
21
-18.9135671
0
LINE
8
DEFAULT_255_2_778
10
60.1513787
20
-18.9135671
11
3.1005991
21
-18.9135671
0
LINE
8
DEFAULT_255_2_778
10
3.1005991
20
-18.9135671
11
3.1005991
21
0.9301824
0
LINE
8
DEFAULT_255_2_778
10
45.2685534
20
-6.5112237
11
76.2744119
21
-6.5112237
0
LINE
8
DEFAULT_255_2_778
10
76.2744119
20
-6.5112237
11
76.2744119
21
-11.472161
0
LINE
8
DEFAULT_255_2_778
10
76.2744119
20
-11.472161
11
45.2685534
21
-11.472161
0
LINE
8
DEFAULT_255_2_778
10
45.2685534
20
-11.472161
11
45.2685534
21
-6.5112237
0
LINE
8
DEFAULT_255_2_778
10
40.3076293
20
0.9301824
11
45.2685667
21
0.9301824
0
LINE
8
DEFAULT_255_2_778
10
45.2685667
20
0.9301824
11
45.2685667
21
-18.9135671
0
LINE
8
DEFAULT_255_2_778
10
45.2685667
20
-18.9135671
11
40.3076293
21
-18.9135671
0
LINE
8
DEFAULT_255_2_778
10
40.3076293
20
-18.9135671
11
40.3076293
21
0.9301824
0
LINE
8
DEFAULT_255_2_778
10
3.1005991
20
-8.9917056
11
5.4384393
21
-16.4331116
0
LINE
8
DEFAULT_255_2_778
10
5.4384393
20
-16.4331116
11
10.1141273
21
-1.5502995
0
LINE
8
DEFAULT_255_2_778
10
10.1141273
20
-1.5502995
11
14.7898077
21
-16.4331116
0
LINE
8
DEFAULT_255_2_778
10
14.7898077
20
-16.4331116
11
19.4654892
21
-1.5502995
0
LINE
8
DEFAULT_255_2_778
10
19.4654892
20
-1.5502995
11
24.1411767
21
-16.4331116
0
LINE
8
DEFAULT_255_2_778
10
24.1411767
20
-16.4331116
11
28.8168561
21
-1.5502995
0
LINE
8
DEFAULT_255_2_778
10
28.8168561
20
-1.5502995
11
33.4925376
21
-16.4331116
0
LINE
8
DEFAULT_255_2_778
10
50.229504
20
19.5336842
11
50.229504
21
0.9301691
0
LINE
8
DEFAULT_255_2_778
10
33.4863404
20
-16.4331116
11
38.0342822
21
-1.5502995
0
LINE
8
DEFAULT_255_2_778
10
38.0342822
20
-1.5502995
11
40.3076293
21
-8.9917056
0
LINE
8
DEFAULT_4_2_778
10
47.1289182
20
19.5336975
11
53.3300899
21
19.5336975
0
LINE
8
DEFAULT_4_2_778
10
50.229504
20
22.6342635
11
50.229504
21
19.5336776
0
ENDSEC
0
EOF