0
SECTION
2
HEADER
0
ENDSEC
0
SECTION
2
TABLES
0
TABLE
2
LTYPE
0
LTYPE
72
65
70
64
2
CONTINUOUS
3
______
73
0
40
0
0
ENDTAB
0
TABLE
2
LAYER
0
LAYER
2
DEFAULT_255_2_778
70
0
62
255
6
CONTINUOUS
0
LAYER
2
DEFAULT_4_2_778
70
0
62
4
6
CONTINUOUS
0
ENDTAB
0
ENDSEC
0
SECTION
2
ENTITIES
0
LINE
8
DEFAULT_255_2_778
10
3.1005859
20
0.9301824
11
56.4306625
21
0.9301824
0
LINE
8
DEFAULT_255_2_778
10
56.4306625
20
0.9301824
11
56.4306625
21
-18.9135671
0
LINE
8
DEFAULT_255_2_778
10
56.4306625
20
-18.9135671
11
3.1005859
21
-18.9135671
0
LINE
8
DEFAULT_255_2_778
10
3.1005859
20
-18.9135671
11
3.1005859
21
0.9301824
0
LINE
8
DEFAULT_255_2_778
10
15.5029425
20
0.9301824
11
20.4638798
21
0.9301824
0
LINE
8
DEFAULT_255_2_778
10
20.4638798
20
0.9301824
11
20.4638798
21
-18.9135671
0
LINE
8
DEFAULT_255_2_778
10
20.4638798
20
-18.9135671
11
15.5029425
21
-18.9135671
0
LINE
8
DEFAULT_255_2_778
10
15.5029425
20
-18.9135671
11
15.5029425
21
0.9301824
0
LINE
8
DEFAULT_255_2_778
10
20.4638666
20
-7.751458
11
76.2744119
21
-7.751458
0
LINE
8
DEFAULT_255_2_778
10
76.2744119
20
-7.751458
11
76.2744119
21
-12.7123954
0
LINE
8
DEFAULT_255_2_778
10
76.2744119
20
-12.7123954
11
20.4638666
21
-12.7123954
0
LINE
8
DEFAULT_255_2_778
10
20.4638666
20
-12.7123954
11
20.4638666
21
-7.751458
0
LINE
8
DEFAULT_255_2_778
10
10.5419919
20
19.5336975
11
10.5419919
21
0.9301824
0
LINE
8
DEFAULT_255_2_778
10
48.9892564
20
19.5336975
11
48.9892564
21
0.9301824
0
LINE
8
DEFAULT_4_2_778
10
7.4414193
20
19.5336975
11
13.642591
21
19.5336975
0
LINE
8
DEFAULT_4_2_778
10
10.5419985
20
22.6342635
11
10.5419985
21
19.5336776
0
LINE
8
DEFAULT_4_2_778
10
45.8886772
20
19.5336776
11
52.0898489
21
19.5336776
0
LINE
8
DEFAULT_4_2_778
10
48.9892697
20
22.6342635
11
48.9892697
21
19.5336776
0
ENDSEC
0
EOF