0
SECTION
2
HEADER
0
ENDSEC
0
SECTION
2
TABLES
0
TABLE
2
LTYPE
0
LTYPE
72
65
70
64
2
CONTINUOUS
3
______
73
0
40
0
0
ENDTAB
0
TABLE
2
LAYER
0
LAYER
2
DEFAULT_255_2_778
70
0
62
255
6
CONTINUOUS
0
LAYER
2
DEFAULT_4_2_778
70
0
62
4
6
CONTINUOUS
0
ENDTAB
0
ENDSEC
0
SECTION
2
ENTITIES
0
LINE
8
DEFAULT_255_2_778
10
16.7431636
20
0.9301824
11
62.6318342
21
0.9301824
0
LINE
8
DEFAULT_255_2_778
10
62.6318342
20
0.9301824
11
62.6318342
21
-18.9135671
0
LINE
8
DEFAULT_255_2_778
10
62.6318342
20
-18.9135671
11
16.7431636
21
-18.9135671
0
LINE
8
DEFAULT_255_2_778
10
16.7431636
20
-18.9135671
11
16.7431636
21
0.9301824
0
LINE
8
DEFAULT_255_2_778
10
3.1005859
20
-6.5112237
11
27.9052727
21
-6.5112237
0
LINE
8
DEFAULT_255_2_778
10
27.9052727
20
-6.5112237
11
27.9052727
21
-11.472161
0
LINE
8
DEFAULT_255_2_778
10
27.9052727
20
-11.472161
11
3.1005859
21
-11.472161
0
LINE
8
DEFAULT_255_2_778
10
3.1005859
20
-11.472161
11
3.1005859
21
-6.5112237
0
LINE
8
DEFAULT_255_2_778
10
32.86621
20
-6.5112237
11
76.2744119
21
-6.5112237
0
LINE
8
DEFAULT_255_2_778
10
76.2744119
20
-6.5112237
11
76.2744119
21
-11.472161
0
LINE
8
DEFAULT_255_2_778
10
76.2744119
20
-11.472161
11
32.86621
21
-11.472161
0
LINE
8
DEFAULT_255_2_778
10
32.86621
20
-11.472161
11
32.86621
21
-6.5112237
0
LINE
8
DEFAULT_255_2_778
10
27.9052859
20
0.9301824
11
32.8662233
21
0.9301824
0
LINE
8
DEFAULT_255_2_778
10
32.8662233
20
0.9301824
11
32.8662233
21
-18.9135671
0
LINE
8
DEFAULT_255_2_778
10
32.8662233
20
-18.9135671
11
27.9052859
21
-18.9135671
0
LINE
8
DEFAULT_255_2_778
10
27.9052859
20
-18.9135671
11
27.9052859
21
0.9301824
0
LINE
8
DEFAULT_255_2_778
10
25.4248172
20
19.5336842
11
25.4248172
21
0.9301691
0
LINE
8
DEFAULT_255_2_778
10
55.1904414
20
19.5336842
11
55.1904414
21
0.9301691
0
LINE
8
DEFAULT_4_2_778
10
22.3242314
20
19.5336975
11
28.5254031
21
19.5336975
0
LINE
8
DEFAULT_4_2_778
10
25.4247974
20
22.6342635
11
25.4247974
21
19.5336776
0
LINE
8
DEFAULT_4_2_778
10
52.0898357
20
19.5336776
11
58.2910074
21
19.5336776
0
LINE
8
DEFAULT_4_2_778
10
55.1904414
20
22.6342635
11
55.1904414
21
19.5336776
0
ENDSEC
0
EOF