0
SECTION
2
HEADER
0
ENDSEC
0
SECTION
2
TABLES
0
TABLE
2
LTYPE
0
LTYPE
72
65
70
64
2
CONTINUOUS
3
______
73
0
40
0
0
ENDTAB
0
TABLE
2
LAYER
0
LAYER
2
DEFAULT_255_2_778
70
0
62
255
6
CONTINUOUS
0
LAYER
2
DEFAULT_4_2_778
70
0
62
4
6
CONTINUOUS
0
ENDTAB
0
ENDSEC
0
SECTION
2
ENTITIES
0
LINE
8
DEFAULT_255_2_778
10
12.4023434
20
0.310052
11
66.9726544
21
0.310052
0
LINE
8
DEFAULT_255_2_778
10
66.9726544
20
0.310052
11
66.9726544
21
-19.5336975
0
LINE
8
DEFAULT_255_2_778
10
66.9726544
20
-19.5336975
11
12.4023434
21
-19.5336975
0
LINE
8
DEFAULT_255_2_778
10
12.4023434
20
-19.5336975
11
12.4023434
21
0.310052
0
LINE
8
DEFAULT_255_2_778
10
45.8886706
20
0.310052
11
50.849608
21
0.310052
0
LINE
8
DEFAULT_255_2_778
10
50.849608
20
0.310052
11
50.849608
21
-19.5336975
0
LINE
8
DEFAULT_255_2_778
10
50.849608
20
-19.5336975
11
45.8886706
21
-19.5336975
0
LINE
8
DEFAULT_255_2_778
10
45.8886706
20
-19.5336975
11
45.8886706
21
0.310052
0
LINE
8
DEFAULT_255_2_778
10
50.849608
20
-7.1313541
11
76.8945291
21
-7.1313541
0
LINE
8
DEFAULT_255_2_778
10
76.8945291
20
-7.1313541
11
76.8945291
21
-12.0922914
0
LINE
8
DEFAULT_255_2_778
10
76.8945291
20
-12.0922914
11
50.849608
21
-12.0922914
0
LINE
8
DEFAULT_255_2_778
10
50.849608
20
-12.0922914
11
50.849608
21
-7.1313541
0
LINE
8
DEFAULT_255_2_778
10
22.3242181
20
17.6733327
11
22.3242181
21
0.310052
0
LINE
8
DEFAULT_255_2_778
10
34.7265615
20
17.6733327
11
34.7265615
21
0.310052
0
LINE
8
DEFAULT_255_2_778
10
44.6484363
20
17.6733327
11
44.6484363
21
0.310052
0
LINE
8
DEFAULT_255_2_778
10
57.0507797
20
17.6733327
11
57.0507797
21
0.310052
0
LINE
8
DEFAULT_255_2_778
10
2.4804687
20
-7.1313541
11
28.5253898
21
-7.1313541
0
LINE
8
DEFAULT_255_2_778
10
28.5253898
20
-7.1313541
11
28.5253898
21
-12.0922914
0
LINE
8
DEFAULT_255_2_778
10
28.5253898
20
-12.0922914
11
2.4804687
21
-12.0922914
0
LINE
8
DEFAULT_255_2_778
10
2.4804687
20
-12.0922914
11
2.4804687
21
-7.1313541
0
LINE
8
DEFAULT_255_2_778
10
28.5254031
20
0.310052
11
33.4863404
21
0.310052
0
LINE
8
DEFAULT_255_2_778
10
33.4863404
20
0.310052
11
33.4863404
21
-19.5336975
0
LINE
8
DEFAULT_255_2_778
10
33.4863404
20
-19.5336975
11
28.5254031
21
-19.5336975
0
LINE
8
DEFAULT_255_2_778
10
28.5254031
20
-19.5336975
11
28.5254031
21
0.310052
0
LINE
8
DEFAULT_255_2_778
10
39.6875121
20
0.310052
11
39.6875121
21
-19.5336975
0
LINE
8
DEFAULT_4_2_778
10
53.9501938
20
17.6733327
11
60.1513655
21
17.6733327
0
LINE
8
DEFAULT_4_2_778
10
57.050773
20
20.7739252
11
57.050773
21
17.6733394
0
LINE
8
DEFAULT_4_2_778
10
41.5478438
20
17.6733394
11
47.7490155
21
17.6733394
0
LINE
8
DEFAULT_4_2_778
10
44.6484296
20
20.7739252
11
44.6484296
21
17.6733394
0
LINE
8
DEFAULT_4_2_778
10
31.6259691
20
17.6733394
11
37.8271408
21
17.6733394
0
LINE
8
DEFAULT_4_2_778
10
34.7265549
20
20.7739252
11
34.7265549
21
17.6733394
0
LINE
8
DEFAULT_4_2_778
10
19.2236257
20
17.6733394
11
25.4247974
21
17.6733394
0
LINE
8
DEFAULT_4_2_778
10
22.3242181
20
20.7739252
11
22.3242181
21
17.6733394
0
ENDSEC
0
EOF