0
SECTION
2
HEADER
0
ENDSEC
0
SECTION
2
TABLES
0
TABLE
2
LTYPE
0
LTYPE
72
65
70
64
2
CONTINUOUS
3
______
73
0
40
0
0
ENDTAB
0
TABLE
2
LAYER
0
LAYER
2
DEFAULT_255_2_778
70
0
62
255
6
CONTINUOUS
0
LAYER
2
DEFAULT_4_2_778
70
0
62
4
6
CONTINUOUS
0
ENDTAB
0
ENDSEC
0
SECTION
2
ENTITIES
0
LINE
8
DEFAULT_255_2_778
10
15.5029293
20
-3.4106378
11
41.5478504
21
-3.4106378
0
LINE
8
DEFAULT_255_2_778
10
41.5478504
20
-3.4106378
11
41.5478504
21
-9.6118095
0
LINE
8
DEFAULT_255_2_778
10
41.5478504
20
-9.6118095
11
15.5029293
21
-9.6118095
0
LINE
8
DEFAULT_255_2_778
10
15.5029293
20
-9.6118095
11
15.5029293
21
-3.4106378
0
LINE
8
DEFAULT_255_2_778
10
3.1005859
20
23.8745044
11
76.2744119
21
23.8745044
0
LINE
8
DEFAULT_255_2_778
10
76.2744119
20
23.8745044
11
76.2744119
21
-3.4106511
0
LINE
8
DEFAULT_255_2_778
10
76.2744119
20
-3.4106511
11
3.1005859
21
-3.4106511
0
LINE
8
DEFAULT_255_2_778
10
3.1005859
20
-3.4106511
11
3.1005859
21
23.8745044
0
LINE
8
DEFAULT_255_2_778
10
26.6650383
20
17.6733327
11
30.3857413
21
17.6733327
0
LINE
8
DEFAULT_255_2_778
10
30.3857413
20
17.6733327
11
30.3857413
21
2.7905207
0
LINE
8
DEFAULT_255_2_778
10
30.3857413
20
2.7905207
11
26.6650383
21
2.7905207
0
LINE
8
DEFAULT_255_2_778
10
26.6650383
20
2.7905207
11
26.6650383
21
17.6733327
0
LINE
8
DEFAULT_255_2_778
10
30.3857546
20
23.8745177
11
36.5869263
21
23.8745177
0
LINE
8
DEFAULT_255_2_778
10
36.5869263
20
23.8745177
11
36.5869263
21
-3.4106378
0
LINE
8
DEFAULT_255_2_778
10
36.5869263
20
-3.4106378
11
30.3857546
21
-3.4106378
0
LINE
8
DEFAULT_255_2_778
10
30.3857546
20
-3.4106378
11
30.3857546
21
23.8745177
0
LINE
8
DEFAULT_255_2_778
10
14.2627081
20
47.4389701
11
14.2627081
21
23.8745177
0
LINE
8
DEFAULT_255_2_778
10
65.1123029
20
47.4389569
11
65.1123029
21
23.8745044
0
LINE
8
DEFAULT_255_2_778
10
36.586913
20
17.6733327
11
40.3076161
21
17.6733327
0
LINE
8
DEFAULT_255_2_778
10
40.3076161
20
17.6733327
11
40.3076161
21
2.7905207
0
LINE
8
DEFAULT_255_2_778
10
40.3076161
20
2.7905207
11
36.586913
21
2.7905207
0
LINE
8
DEFAULT_255_2_778
10
36.586913
20
2.7905207
11
36.586913
21
17.6733327
0
LINE
8
DEFAULT_255_2_778
10
16.7431636
20
17.6733327
11
20.4638666
21
17.6733327
0
LINE
8
DEFAULT_255_2_778
10
20.4638666
20
17.6733327
11
20.4638666
21
2.7905207
0
LINE
8
DEFAULT_255_2_778
10
20.4638666
20
2.7905207
11
16.7431636
21
2.7905207
0
LINE
8
DEFAULT_255_2_778
10
16.7431636
20
2.7905207
11
16.7431636
21
17.6733327
0
LINE
8
DEFAULT_255_2_778
10
20.4638666
20
23.8745044
11
26.6650383
21
23.8745044
0
LINE
8
DEFAULT_255_2_778
10
26.6650383
20
23.8745044
11
26.6650383
21
-3.4106511
0
LINE
8
DEFAULT_255_2_778
10
26.6650383
20
-3.4106511
11
20.4638666
21
-3.4106511
0
LINE
8
DEFAULT_255_2_778
10
20.4638666
20
-3.4106511
11
20.4638666
21
23.8745044
0
LINE
8
DEFAULT_4_2_778
10
62.0117303
20
47.4389569
11
68.212902
21
47.4389569
0
LINE
8
DEFAULT_4_2_778
10
65.1122963
20
50.5395494
11
65.1122963
21
47.4389635
0
LINE
8
DEFAULT_4_2_778
10
11.1621024
20
47.4389635
11
17.3632742
21
47.4389635
0
LINE
8
DEFAULT_4_2_778
10
14.2627081
20
50.5395494
11
14.2627081
21
47.4389635
0
ENDSEC
0
EOF