0
SECTION
2
HEADER
0
ENDSEC
0
SECTION
2
TABLES
0
TABLE
2
LTYPE
0
LTYPE
72
65
70
64
2
CONTINUOUS
3
______
73
0
40
0
0
ENDTAB
0
TABLE
2
LAYER
0
LAYER
2
DEFAULT_255_2_778
70
0
62
255
6
CONTINUOUS
0
LAYER
2
DEFAULT_4_2_778
70
0
62
4
6
CONTINUOUS
0
ENDTAB
0
ENDSEC
0
SECTION
2
ENTITIES
0
ARC
8
0
10
62.7775737
20
22.3242931
40
14.2626074
50
82.9004775
51
90.0174991
0
ARC
8
0
10
62.8210908
20
22.6743781
40
13.909828
50
74.8338015
51
82.9001287
0
ARC
8
0
10
62.8966887
20
22.9516253
40
13.6224591
50
65.469775
51
74.8356163
0
ARC
8
0
10
63.0212784
20
23.2213754
40
13.3253296
50
54.8742301
51
65.4755861
0
ARC
8
0
10
63.2869513
20
23.587494
40
12.8730251
50
40.5089151
51
54.9037691
0
ARC
8
0
10
63.9059148
20
24.088175
40
12.0772175
50
15.7951128
51
40.6103805
0
ARC
8
0
10
64.2088622
20
24.2020965
40
11.7547311
50
5.4089638
51
15.6627361
0
ARC
8
0
10
64.0452407
20
24.186303
40
11.9191129
50
359.9916043
51
5.410404
0
ARC
8
0
10
64.0986706
20
24.1805809
40
11.8656834
50
351.2137354
51
0.0191966
0
ARC
8
0
10
64.2077825
20
24.1669996
40
11.7557778
50
339.5446817
51
351.1979208
0
ARC
8
0
10
63.6722028
20
24.4160485
40
12.3447096
50
310.3280009
51
339.3303799
0
ARC
8
0
10
63.1037978
20
25.015057
40
13.1692948
50
298.4972912
51
310.5266937
0
ARC
8
0
10
62.9375224
20
25.3147029
40
13.5119685
50
288.7406703
51
298.5107045
0
ARC
8
0
10
62.8477358
20
25.5771169
40
13.789317
50
280.261993
51
288.7436478
0
ARC
8
0
10
62.7908541
20
25.8917499
40
14.1090504
50
272.7146126
51
280.2616686
0
ARC
8
0
10
62.7739208
20
26.173152
40
14.390939
50
269.9972005
51
272.7288926
0
ARC
8
0
10
16.5986502
20
26.0491059
40
14.2668936
50
262.9015389
51
270.0175434
0
ARC
8
0
10
16.5549956
20
25.6979272
40
13.913012
50
254.8356794
51
262.9012221
0
ARC
8
0
10
16.4794097
20
25.4204831
40
13.6254561
50
245.5411212
51
254.8372684
0
ARC
8
0
10
16.3550407
20
25.1504664
40
13.3281773
50
234.9341569
51
245.5471836
0
ARC
8
0
10
16.0892122
20
24.7833255
40
12.874954
50
220.5534901
51
234.9637494
0
ARC
8
0
10
15.4695537
20
24.281328
40
12.0777795
50
195.8132068
51
220.6552867
0
ARC
8
0
10
15.165832
20
24.1669881
40
11.7544257
50
185.4150891
51
195.6803892
0
ARC
8
0
10
15.3295997
20
24.1828056
40
11.9189553
50
179.9915839
51
185.4164933
0
ARC
8
0
10
15.2763328
20
24.1885319
40
11.865689
50
171.2137374
51
180.0191967
0
ARC
8
0
10
15.1672191
20
24.2021115
40
11.7557819
50
159.544676
51
171.1979129
0
ARC
8
0
10
15.7027954
20
23.9530641
40
12.3447101
50
130.3279952
51
159.3303756
0
ARC
8
0
10
16.2711994
20
23.3540564
40
13.1692937
50
118.497284
51
130.5266873
0
ARC
8
0
10
16.4374783
20
23.0544023
40
13.5119764
50
108.7406664
51
118.510694
0
ARC
8
0
10
16.5272721
20
22.7919597
40
13.7893544
50
100.2620041
51
108.7436341
0
ARC
8
0
10
16.5841408
20
22.4773698
40
14.1090431
50
92.7146011
51
100.2616585
0
ARC
8
0
10
16.601077
20
22.1959749
40
14.3909249
50
89.9972005
51
92.7288942
0
LINE
8
DEFAULT_255_2_778
10
62.7732177
20
11.782213
11
16.6030185
21
11.782213
0
LINE
8
DEFAULT_255_2_778
10
16.6017801
20
36.5868998
11
62.7732177
21
36.5868998
0
LINE
8
DEFAULT_255_2_778
10
3.4106444
20
36.5868998
11
75.9643534
21
36.5868998
0
LINE
8
DEFAULT_255_2_778
10
3.4106444
20
11.782213
11
75.9643534
21
11.782213
0
LINE
8
DEFAULT_255_2_778
10
38.7573298
20
-11.7822196
11
38.7573298
21
12.40235
0
LINE
8
DEFAULT_4_2_778
10
36.2768611
20
-11.7822395
11
41.2377984
21
-11.7822395
0
LINE
8
DEFAULT_4_2_778
10
38.7573298
20
-11.7822395
11
38.7573298
21
-14.2627081
0
ENDSEC
0
EOF